STROKER ACE - words and music by Ween
**from the album "White Pepper"

Beanween told me this is in E and not F. Move everything down a fret if
you like or tune it down i say. Lyrics should be correct.

Stroker Ace - by Ween

Riff 1 (Verse Riff)
e========================
B========================
G========================
D=============1==========
A=h3p0h3p0h3====3=1=0====
E=====================1==

Riff 2 (Intro and prechorus riff)
e=====================
B=====================
G=====================
D=====================
A=====3=3=6=3=1=======
E=1=1===========4=1===

Riff 3 (Chorus Riff) "Well it looks....."
e======================================================|===================
B======================================================|===================
G======================================================|===================
D=3=3=h3p0h3p0h3===6=6=5=0====3=3=h3p0h3p0h3===8=7=5=0=|=============1=1=3=
A======================================================|=3=3=3=3=1=1=======
E======================================================|===================

(riff 1)
light up the wheels and go for broke
stomp that pedal with a sniftin stroke
smack that roadblock caught in a pickle
i'm gonna hit that line like old dick trickle

(riff 2)
well my motor's fine and this train's on time
and when i cross that line i'm gonna make you mine

(riff 3)
i'm stroker ace-stroker ace-stroker ace
well it smells like poop and it sure looks crappy
gotta get back to north pappy flappy

well it's one a.m. and i'm rollin' in the car now
gonna hit last call down at the bar now
got a shammy in my pocket and it's burnin' a hole
stick it the floor and watch me roll

well my motor's fine and this train's on time
and when i cross that line i'm gonna make you mine

i'm stroker ace-stroker ace-stroker ace

well it smells like poop and it sure looks crappy
gotta get back to north pappy flappy

**Tabbed by Todder

***Version 2*** by blamft (blamft@hotmail.com)

Chords:
EADGBE
G 355xxx
C# x466xx
D x577xx
D# x688xx
E x799xx

Intro
E-----|------------------------|
B-----|------------------------|
G-----|*----------------------*| x4
D-----|*----------------------*|
A-----|---------22-55-22-------|
E-12\-|--0-33-55--------55-33--|

Verse
E|---------------------------------|
B|---------------------------------|
G|----drum-------------------------|
D|----fill------------0------------|
A|---------2p0h2p0h2p0-2p0h2p0-----|
E|-00-------------------------3-00-|

Chorus
Intro riff x4, then:
E|-----------------------------------------------------|
B|-----------------------------------------------------|
G|*---------------------------------------------------*|
D|*------------------------------------------77-66-55-*| x3
A|------------77-6-5--77-66-55---------77-6-5----------|
E|-----------------------------------------------------|
"Stroker Ace!" "Stroker Ace!"

G
"Well it smells like poop and it sure looks crappy"
C# D D# E
"Gotta get back to north pappy flappy"

Solo:
Nope. Too hard (well, the first part is, and it doesn't feel
right to tab all of the solo except the beginning).

Awesome Sound - Ween Guitar tabs (www.vaxxine.com/mtbhl/ween.htm)