The Rift - by Mick Preston
**Unreleased Song

The Rift - as performed by The Jimmy Wilson Group

NOTE: The block chord names in this transcription, i.e. E, B and A,
are actually the riffs below. If you have two guitars then by all
means play the block chords but if not then at least play the riff for
the Rift and the Curious One. Enjoy you fuckin' freaks.

B A
E:-------------------:-----------------------:
B:-------------------:-----------------------:
G:--------------7(b)-:-------------5(b)------:
D:--7--8--9--------9-:-5--6--7-----------7---:
A:-----------9-------:----------7------------:
E:-------------------:-----------------------:

E E
E:----------------------:---------------------:
B:----------------------:---------------------:
G:----------------------:---------------------:
D:--------------5(b)----:--------------5(b)---:
A:--5--6--7----------7--:--5--6--7-----------7:
E:-----------7----------:-----------7---------:

B
There's a Rift out in space
A
and it could be a door
E
but you know I'm not sure (play this section 2x)

B
When you go to the Rift
A
to the Palace of Ice
E
Might it be nice, is it paradise? (play 2x)

B
I'm the commander of time
A
in my vessel of God
E
I go to the Rift, to the Palace of Ice (play 2x)

B
We may never come back
A
from the Palace of Ice
E
because the Rift is a door (play 2x)

NOTE: As always, solo with lots of phasor, delay and wah. Trip out,
mangs and mangettes.

***tabbed by The Glidge
Awesome Sound - Ween Guitar tabs (www.vaxxine.com/mtbhl/ween.htm)