Ween
Transitions

by frakctured

Lots of nice guitar work by Deaner, one of my favorite ween songs. Should be close to 100% accurate on everything for the Shinola Version.

Intro:

e:-----------------------------------------------15---------------------------------------------------------------------------------------
B:-------------------------------12-----------------------------------------------------------------------------------15------------------
G:----------------------------------12~~---14b15-----12h14-12----------------------------------------14-12~~---14b15------12h14-----------
D:-14h15-14b15r14-12-14~~--12-14------------------------------14-12----14h15-14b15r14-12-14~~--12-14------------------------------14-12---
A:----------------------------------------------------------------------------------------------------------------------------------------
E:----------------------------------------------------------------------------------------------------------------------------------------

Verse chords:

Bb Am G with Am Bb turnaround, chord in parentheses is actually the first chord of the next line

e:--------------------------------------------------
B:-----6--6-------5--5-------3--3------3--3--5------
G:-7---7--7---5---5--5---4---4--4---4--4--4--5-(7)--
D:-8---8--8---7---7--7---5---5--5---5--5--5--7-(8)--
A:-8----------7----------5----------5-----5--7-(8)--
E:--------------------------------------------------

Chorus ("And he says..."):

G Am Bm C F G D (passing note) F

e:-----------------------------1--
B:-----------------------------1--
G:-4--5--7--9---7--5--4-----4--2--
D:-5--7--9--10--9--7--5--0--5--3--
A:-5--7--9--10--9--7--5-----5--3--
E:--------------------------------

Chorus 1 Fills :

e:--13p12-13--15--17--18--17--15--13--12-13p12--
B:----------------------------------------------
G:----------------------------------------------

e:--12---------------
B:--13--13-----------
G:---------14--------
D:------------15-----
A:---------------15--
E:-------------------

e:-12--13--15s/17--15--13--12--10--12h13p12-10-
B:-13------------------------------------------
G:---------------------------------------------

 

Verse 2 Fills:

e:---------15------------15--------------15------
B:------------15------------15-------------------
G:---14b16---------14b16---------14b16-----------

 

e:---17b18r17-17b18r17-17b18r17---17b18r17--15~~--
B:------------------------------------------------

e:-----------------------------
B:-----------------------------
G:----14b15r14~~~--------12----
D:------------------14---------

 

e:-----10h12-12p10-------------
B:--12----------------12-------
G:-----------------------------

Chorus ("And he says..."):

e:-----------------------------1--
B:-----------------------------1--
G:-4--5--7--9---7--5--4-----4--2--
D:-5--7--9--10--9--7--5--0--5--3--
A:-5--7--9--10--9--7--5-----5--3--
E:--------------------------------

Chorus 2 Fills:

e:--13-12-13----------------------
B:------------13-12-13--11-10-11--
G:--------------------------------

e;----------------------------12-----
B:----------------------13-15----13--
G:----------------12-14--------------
D:----------14-15--------------------
A:----12-15--------------------------
E:--13-------------------------------

e:-15-13-15-13-------------------------------------------------------------
B:-------------15-13-15-13-------------------------------------------------
G:-------------------------15-14-15-14-------------------------------------
D:-------------------------------------15-14-15-14-15-14-------------------
A:-------------------------------------------------------15-13-12----12----
E:----------------------------------------------------------------13---13--

Solo:

e:-----------------------------------------12h15p12---------------------------------------------------------------------------------------------------
B:-------------------------------12--------------------12h15p12-------------------------------------------12------------------------------------------
G:----------------------------------12~~--------------------------12h14p12--------------------------12-14----12~~--12h14p12------------------------12-
D:-14h15-14b15r14-12-14~~--12-14---------------------------------------------14h15-14b15r14-12-14~~--------------------------12h14p12-----------------
A:-------------------------------------------------------------------------------------------------------------------------------------12h14p12p10----
E:----------------------------------------------------------------------------------------------------------------------------------------------------

e:--14h15-15--14h15-15--14h15-14-15-14h15-15--14h15-15-14h15-17-15-14-15-14-----------------------------------------12----------12-----------------------
B:--------------------------------------------------------------------------17-15-17-15-12h15-15-12h15-15--12-13-15----12-13-15----12-13-15-13-12--------
G:------------------------------------------------------------------------------------------------------------------------------------------------14-12--
D:-------------------------------------------------------------------------------------------------------------------------------------------------------
A:-------------------------------------------------------------------------------------------------------------------------------------------------------
E:-------------------------------------------------------------------------------------------------------------------------------------------------------

e:---------------------------------------------------------------------------------------------------------------------------------------------
B:---------------------------------------------------------------------------------------------------------------------------------------------
G:----14-12-----------------14-12----------------14-15-14----------------14-15-17-15-14--------------------------------------------------------
D:-14--------14-12-14~~--14-------14-12-14~~--14----------15-------15-17----------------15-----------14-15-14----------------------------------
A:-----------------------------------------------------------15-17-------------------------15--12-15----------15-14-12-11h12-----12h13-12------
E:----------------------------------------------------------------------------------------------------------------------------13---------------

e:----------------------------12--------15b17--15b17--15b17--15b17-15-13--17b18--17--15----
B:----------------------13-15----15-13-----------------------------------------------------
G:----------------12-14--------------------------------------------------------------------
D:----------14-15--------------------------------------------------------------------------
A:----12-15--------------------------------------------------------------------------------
E:-13--------------------------------------------------------------------------------------

Verse 3:

e:--------------------------------------------------
B:-----6--6-------5--5-------3--3------3--3--5------
G:-7---7--7---5---5--5---4---4--4---4--4--4--5-(7)--
D:-8---8--8---7---7--7---5---5--5---5--5--5--7-(8)--
A:-8----------7----------5----------5-----5--7-(8)--
E:--------------------------------------------------

End:

   Bb         Am             G
e:--------------------------------------------------------
B:-6----------5----------------------12-------------12\---
G:-7----------5------------------12------12---------12\---
D:-8----------7--------------12-------------12------12\---
A:-8----------7-------------------------------------10\---
E:-6----------5-------------------------------------------

Phew! That's all.



VERSION 2 -----------------------

TRANSITIONS

Transitions - by Ween

can't figure out the words- help!

F C G

G Am Bm C Bm Am G G F

GOT A STATIC UNIVERSAL SATURATION
IN THE GRIP OF THE MORNING SUN
THE GRAIN OF SALT THAT ERODES ARE THE AUTOS
THAT LIE DOMAIN WHEN THE DAY IS DONE
HOCK A DINGLE ON THE FERRY TAKES YOU BACK
TO THE DIMENSION THATS JUST BEGUN
RIDING THE CREST OF THE COMMUNION
ITS A UNION HARRY TRUMAN IS THE ONLY SON
AND HE SAYS
AND HE SAYS

REPEAT 3 TIMES -
ALTHOUGH IN 2ND VERSE INSTEAD OF
RIDING THE CREST OF THE COMMUNION ITS A UNION -
GENE SAYS :
RIDING THE CREST OF THE CUMMUNION TO A UNION-

**Tabbed by Gustave, lyrics by keith755
Awesome Sound - Ween Guitar tabs (www.vaxxine.com/mtbhl/ween.htm)