GABRIELLE - words and music by Ween
**Unreleased Song

B-->C#>D at which there is a pull off on down three frets, i thnk its
on the G string, just like:

G|7--6--5

then it goes G-->Gb>Em the G b is basically a walkdown note that is struck
then the Em has a pull off riff on there, something simple, its the same
theory as above

then the chorus is the same chords
B>D>G>Em thrice
and the last line of the chorus is
B>D>G>Gb

Gabrielle - by Ween

Intro (B C#>D, G Gb>Em) X 2

B C#>D
don't mean to be soo insolent
G Gb>Em
but you know its because i love you
foundation in my? benevolence
but you know i'll never hurt ya babe
sometimes i get itchy
a man can sometimes be that way
nobodys perfect baby
i'll always love you anyway

B C
ohhhhhhhh gabrielle
G Em
the sun is shining in your eyes
oh gabrielle
i didn't mean to make you cry
oh me sweet baby darlin'
i bet you love everything
oh gabrielle
i love you till the day i die

sometimes i feel like my old man
you know thats not for me to say
sometimes i just lose my head
i don't know why i get that way
gonna make you happy darlin
it can only work out that way
nobodys perfect baby
and i'll always love you anyway

Repeat Chorus

(solo)

**then the solo is wierd i can't quite git the first part, its a simple pull
off riff

B|-----5^--3----------3--5--
G|--------------4-----------

**the second part is a walk down that both the boys play, i think the whole
solo is a duet but its a tad bit easier maybe goes somethng like this:

G|-4---4---6--4--2---2--4--2--------------------
D|----------------------------5------5--7--5--4-

ohh gabrielle
you know i love you
i did nothing to hurt ya babe
and you know i'm gonna love you anyway
girl sometimes i just get so hot
and i gotta give it what i got
tonites the nite babe
oh yeah

Repeat Chorus

**Tabbed by Matt
Awesome Sound - Ween Guitar tabs (www.vaxxine.com/mtbhl/ween.htm)

BASS TAB


        h          E s E s e e e e   E s E s e e e e   E  s  E s  e  e e e
||----|-r-|----||------r-----r---r-|-----r-----r---r-|-------r-------r---r-|
||-2:-|-e-|-4:-||*-----e-----e---e-|-----e-----e---e-|-------e-------e---e-|
||-4:-|-s-|-4:-||*-----s-----s-4-s-|-5-5-s-5-5-s-7-s-|-10-10-s-10-10-s-9-s-|
||----|-t-|----||--7-7-t-7-7-t---t-|-----t-----t---t-|-------t-------t---t-|
Verse

  E s E s e e e e 2x  E s E s e e e e   E s E s e e e e   E   s E s   e e e e
|-----r-----r---r--||-----r-----r---r-|-----r-----r---r-|-------r-------r---r-|
|-----e-----e---e-*||-----e-----e---e-|-----e-----e---e-|-------e-------e---e-|
|-7-7-s-7-7-s-5-s-*||-----s-----s-4-s-|-5-5-s-5-5-s-7-s-|-10-10-s-10-10-s-9-s-|
|-----t-----t---t--||-7-7-t-7-7-t---t-|-----t-----t---t-|-------t-------t---t-|

  E s E s e e q E s   E s e e e e E s   E s e e e e E s   E s e e e e
|-----r-----r-------|-----r-----r---r-|-----r-----r---r-|-------r-------r---r-|
|-----e-----e-------|-----e-----e---e-|-----e-----e---e-|-------e-------e---e-|
|-7-7-s-7-7-s-8p7p5-|-----s-----s-4-s-|-5-5-s-5-5-s-7-s-|-10-10-s-10-10-s-9-s-|
|-----t-----t-------|-7-7-t-7-7-t---t-|-----t-----t---t-|-------t-------t---t-|

  s^s^s^s^s^s^s^s^s^s^s^s^  q q e e e e       q e e e e       q e e e   e
|-------------------------|-------------|---------------|-----------------|
|-------------------------|-------------|---------------|-----------------|
|-7-7-7-7-7-7-7-7-7-7-7-7-|-------------|---------------|--------------/7-|
|-------------------------|-7-7-7-7-7-5-|-(5)-5-5-5-5-3-|-(3)-3-3-3-3-----|
Chorus

  e e e e q q q   e e e e q e       e e e q e       e e e q e       e q
|---------------|-------------|---------------|---------------|-------------|
|---------------|-------------|---------------|---------------|-------------|
|-(7)-7-7-7-7---|-------------|---------------|---------------|-------------|
|-------------5-|-7-7-7-7-7-5-|-(5)-5-5-5-5-3-|-(3)-3-3-3-3-2-|-(2)-2-2-2-2-|

  q q e e e e       q e e e e       q e e e   e       e e e e q   q q e e e e
|-------------|---------------|-----------------|---------------|-------------|
|-------------|---------------|-----------------|---------------|-------------|
|-------------|---------------|--------------/7-|-(7)-7-7-7-7---|-------------|
|-7-7-7-7-7-5-|-(5)-5-5-5-5-3-|-(3)-3-3-3-3-----|-------------5-|-7-7-7-7-7-5-|

      q e e e e       q e e e e   e e e e e e e e     E s E s e e e e
|---------------|---------------|---r---r---r---r-||------r-----r---r-|
|---------------|---------------|---e---e---e---e-||*-----e-----e---e-|
|---------------|---------------|---s---s---s---s-||*-----s-----s-4-s-|
|-(5)-5-5-5-5-3-|-(3)-3-3-3-3-2-|-2-t-2-t-2-t-2-t-||--7-7-t-7-7-t---t-|
Verse

  E s E s e e e e   E   s E s   e e e e   E s E s e e e e 3x  E s E s e e e e
|-----r-----r---r-|-------r-------r---r-|-----r-----r---r--||-----r-----r---r-|
|-----e-----e---e-|-------e-------e---e-|-----e-----e---e-*||-----e-----e---e-|
|-5-5-s-5-5-s-7-s-|-10-10-s-10-10-s-9-s-|-7-7-s-7-7-s-5-s-*||-----s-----s-4-s-|
|-----t-----t---t-|-------t-------t---t-|-----t-----t---t--||-7-7-t-7-7-t---t-|

  E s E s e e e e   E   s E s   e e e e   e^e^e^e^e^e^e^e^e^e^e^e^    q q e e e e
|-----r-----r---r-|-------r-------r---r-|-------------------------||--------------|
|-----e-----e---e-|-------e-------e---e-|-------------------------||*-------------|
|-5-5-s-5-5-s-7-s-|-10-10-s-10-10-s-9-s-|-7-7-7-7-7-7-7-7-7-7-7-7-||*-------------|
|-----t-----t---t-|-------t-------t---t-|-------------------------||--7-7-7-7-7-5-|
Chorus

      q e e e e       q e e e e e       e e e q q   q e e e e q       e e e e
|---------------|-----------------|---------------|-------------|---------------|
|---------------|-----------------|---------------|-------------|---------------|
|---------------|--------------/7-|-(7)-7-7-7-7---|-------------|---------------|
|-(5)-5-5-5-5-3-|-(3)-3-3-3-3-----|-------------5-|-7-7-7-7-7-5-|-(5)-5-5-5-5-3-|

      q e e e e e       q q e e 2x        q q e e q   q q e e q   q   q e   e q
|-----------------|----------------||-||------------|-----------|---------------|
|-----------------|---------------*||-||*-----------|-----------|---------------|
|--------------/9-|-(9)-9-9-9-9-9-*||-||*---------4-|-5-5-5-5-7-|-10-10-10-10-9-|
|-(3)-3-3-3-3-----|----------------||-||--7-7-7-7---|-----------|---------------|
Solo

  q q e e q 4x  q q e e s E       q e e s E   q q e e s E       q e e q
|------------||-------------|---------------|-------------|-------------|
|-----------*||-------------|---------------|-------------|-------------|
|-7-7-7-7-5-*||-------------|---------------|-----------7-|-(7)-7-7-7-7-|
|------------||-7-7-7-7-7-5-|-(5)-5-5-5-5-3-|-3-3-3-3-3---|-------------|

  q q e e s E       q e e s E   q q e e s E       q e e q   q q e e s E
|-------------|---------------|-------------|-------------|-------------|
|-------------|---------------|-------------|-------------|-------------|
|-------------|---------------|-----------9-|-(9)-9-9-9-9-|-------------|
|-7-7-7-7-7-5-|-(5)-5-5-5-5-3-|-3-3-3-3-3---|-------------|-7-7-7-7-7-5-|

      q e e s E   q q e e s E       q e e q   q q e e s E       q e e s E
|---------------|-------------|-------------|-------------|---------------|
|---------------|-------------|-------------|-------------|---------------|
|---------------|-----------7-|-(7)-7-7-7-7-|-------------|---------------|
|-(5)-5-5-5-5-3-|-3-3-3-3-3---|-------------|-7-7-7-7-7-5-|-(5)-5-5-5-5-3-|

  q q e e s E   e^e^e^e^e^e^e^e^e^e^e^    E s E s e e e e   E s E s e e e e
|-------------|---------r-----------r-||------r-----r---r-|-----r-----r---r-|
|-------------|---------e-----------e-||*-----e-----e---e-|-----e-----e---e-|
|-----------9-|-9-9-9-9-s-9-9-9-9-9-s-||*-----s-----s-4-s-|-5-5-s-5-5-s-7-s-|
|-3-3-3-3-3---|---------t-----------t-||--7-7-t-7-7-t---t-|-----t-----t---t-|
Verse

  E   s E s   e e e e   E s E s e e e e 3x  E s E s e e e e   E s E s e e e e
|-------r-------r---r-|-----r-----r---r--||-----r-----r---r-|-----r-----r---r-|
|-------e-------e---e-|-----e-----e---e-*||-----e-----e---e-|-----e-----e---e-|
|-10-10-s-10-10-s-9-s-|-7-7-s-7-7-s-5-s-*||-----s-----s-4-s-|-5-5-s-5-5-s-7-s-|
|-------t-------t---t-|-----t-----t---t--||-7-7-t-7-7-t---t-|-----t-----t---t-|

  E   s E s   e e e e   e^e^e^e^e^e^e^e^e^e^e^ q q e e e e q      e e e e
|-------r-------r---r-|---------r-----------r-|-------------|---------------|
|-------e-------e---e-|---------e-----------e-|-------------|---------------|
|-10-10-s-10-10-s-9-s-|-7-7-7-7-s-7-7-7-7-7-s-|-------------|---------------|
|-------t-------t---t-|---------t-----------t-|-7-7-7-7-7-5-|-(5)-5-5-5-5-3-|
Chorus

      q e e q   q q E s E s   q q e e e e       q e e e e       q e e q
|-------------|-------------|-------------|---------------|-------------|
|-------------|---5-7-9-7-5-|-------------|---------------|-------------|
|-------------|-7-----------|-------------|---------------|-------------|
|-(3)-3-3-3-3-|-------------|-7-7-7-7-7-5-|-(5)-5-5-5-5-3-|-(3)-3-3-3-3-|

  e^e^e^e^ e^e^e^e^q   q  q e e e e q       e e e e q       e e e e
|-----------------------|-------------|---------------|-----------------|
|-4p2p0-------0-4p2p0---|-------------|---------------|-----------------|
|-------2-(2)---------2-|-------------|---------------|--------------/7-|
|-----------------------|-7-7-7-7-7-5-|-(5)-5-5-5-5-3-|-(3)-3-3-3-3-----|

      e e e e q   q q e e s E       q e e s E   q q e e s E   e^e^e^e^e^e^e^e^e^e^e^
|---------------|-------------|---------------|-------------|---------r-----------r--|
|---------------|-------------|---------------|-------------|---------e-----------e--|
|-(7)-7-7-7-7---|-------------|---------------|-----------9-|-9-9-9-9-s-9-9-9-9-9-s--|
|-------------5-|-7-7-7-7-7-5-|-(5)-5-5-5-5-3-|-3-3-3-3-3---|---------t-----------t--|

    E s e e E s e e 2x  E s e e e e q   e e q e e q   w           w
||-------------------||-------------r-|-----r-----r-|---|-----|------|------||
||*-----------------*||-------------e-|-----e-----e-|---|-----|------|------||
||*-----------------*||-------------s-|-----s-----s-|---|-----|--/14-|-(14)-||
||--7-7-7-5-7-7-7-5--||-7-7-7-5-7-7-t-|-7-7-t-2-2-t-|-7-|-(7)-|------|------||
Outro