I FEEL IN LOVE TODAY
Ween
Shinola vol. 1

B5(Bm)

B5(Bm)
I got nothing to lose. I saw the sun in May.
F#                    E          D          E
I've got something to hold on to. I fell in love today.

I saw the break at dawn. I saw a child in play.
I saw the spring in the winter time. I fell in love today.

I walk with the brids in flight. I fly with love today.
Green grass never looked so good. I fell in love today. Ooh, yeah.

Solo:
E|--10----9--7------7------10----9--7------7----
B|-------------10---------------------10--------

B|-----------3---------------5----------------6--------------7----
G|-11\----4-----4--11\----4-----4--11\----4-----4--11\----4-----4-

B|--6^7-6^7-6^7-6^7-5----------------------------------|
G|-----------------------7-----------------------------|
D|--------------------------9--7-----------------------|
A|-------------------------------9--8--7-----5----7----|
E|---------------------------------------------------7-|

I feel like a million bucks. Nothing could break my sway.
You people can't touch me. I fell in love today.

 

BASS TAB

        q          e e e e e q e e      e e e e e e e     e e e e q e
||----|-r-|----||-----------------|-------------------|-r--------------|
||-1:-|-e-|-4:-||*---------7-12-9-|-(9)-7-9-7-------7-|-e-------7-12-9-|
||-4:-|-s-|-4:-||*-----7-9--------|-----------9-7-9---|-s---7-9--------|
||----|-t-|----||--7-7------------|-------------------|-t-7------------|
Intro

      e e e e e e e 2x      e e e e e q e e      e e e e e e 2x    e e e e e e e e
|--------------------||-||-----------------|--------------------||-----------------|
|-(9)-7-9-7-------7-*||-||*---------7-12-9-|-(9)-7-9-7-------7-*||-----------------|
|-----------9-7-9---*||-||*-----7-9--------|-----------9-7-9---*||-9-9-9-9-9-9-9-8-|
|--------------------||-||--7-7------------|--------------------||-----------------|
Verse 1

  e e e e e e e e   e e e e e e e e   e e e e e q  e       e e e e e e e
|-----------------|-----------------|----------------|-------------------|
|-----------------|-----------------|---------7-12-9-|-(9)-7-9-7-------7-|
|-7-7-7-7-7-7-7-7-|-5-5-5-5-7-7-7-7-|-----7-9--------|-----------9-7-9---|
|-----------------|-----------------|-7-7------------|-------------------|

    e e e e e  q       e e e e e e e   e e e e e e  q       e e e e e e e
|-r--------------|-------------------|----------------|-------------------|
|-e-------7-12-9-|-(9)-7-9-7-------7-|---------7-12-9-|-(9)-7-9-7-------7-|
|-s---7-9--------|-----------9-7-9---|-----7-9--------|-----------9-7-9---|
|-t-7------------|-------------------|-7-7------------|-------------------|
Verse 2

    e e e e e  q       e e e e e e e   e e e e e e e e  e e e e e e e e e
|-r--------------|-------------------|-----------------|-----------------|
|-e-------7-12-9-|-(9)-7-9-7-------7-|-----------------|-----------------|
|-s---7-9--------|-----------9-7-9---|-9-9-9-9-9-9-9-8-|-7-7-7-7-7-7-7-7-|
|-t-7------------|-------------------|-----------------|-----------------|

  e e e e e e e e     e e e e e q  e       e e e e e e e 2x  e e e e e q  e
|-----------------||-----------------|--------------------||----------------|
|-----------------||*---------7-12-9-|-(9)-7-9-7-------7-*||---------7-12-9-|
|-5-5-5-5-7-7-7-7-||*-----7-9--------|-----------9-7-9---*||-----7-9--------|
|-----------------||--7-7------------|--------------------||-7-7------------|
Verse 3

      e e e e e e e     e e e e e  q       e e e e e e e  e e e e e e e e e
|-------------------|-r--------------|-------------------|-----------------|
|-(9)-7-9-7-------7-|-e-------7-12-9-|-(9)-7-9-7-------7-|-----------------|
|-----------9-7-9---|-s---7-9--------|-----------9-7-9---|-9-9-9-9-9-9-9-8-|
|-------------------|-t-7------------|-------------------|-----------------|

  e e e e e e e e   e e e e e e e e     e e e e e q  e       e e e e e e e 4x
|-----------------|-----------------||-----------------|--------------------||
|-----------------|-----------------||*---------7-12-9-|-(9)-7-9-7-------7-*||
|-7-7-7-7-7-7-7-7-|-5-5-5-5-7-7-7-7-||*-----7-9--------|-----------9-7-9---*||
|-----------------|-----------------||--7-7------------|--------------------||
Solo

  e e e e e e e e   e e e e e e e e   e e e e e e e e     e e e e e q  e
|-----------------|-----------------|-----------------||-----------------|
|-----------------|-----------------|-----------------||*---------7-12-9-|
|-9-9-9-9-9-9-9-8-|-7-7-7-7-7-7-7-7-|-5-5-5-5-7-7-7-7-||*-----7-9--------|
|-----------------|-----------------|-----------------||--7-7------------|

      e e e e e e e 2x      e e e e e q  e       e e e e e e e 2x  e e e e e e e e
|--------------------||-||-----------------|--------------------||-----------------|
|-(9)-7-9-7-------7-*||-||*---------7-12-9-|-(9)-7-9-7-------7-*||-----------------|
|-----------9-7-9---*||-||*-----7-9--------|-----------9-7-9---*||-9-9-9-9-9-9-9-8-|
|--------------------||-||--7-7------------|--------------------||-----------------|
Verse 4

  e e e e e e e e   e e e e e e e e     e e e e e q  e       e e e e e e e 3x
|-----------------|-----------------||-----------------|--------------------||
|-----------------|-----------------||*---------7-12-9-|-(9)-7-9-7-------7-*||
|-7-7-7-7-7-7-7-7-|-5-5-5-5-7-7-7-7-||*-----7-9--------|-----------9-7-9---*||
|-----------------|-----------------||--7-7------------|--------------------||
Outro

  e e e e e q  e       e e e   E     E    e   e e e e e q e
|----------------|--------------------------|-----------------|
|---------7-12-9-|-(9)-7-9-7--/14--/14--/14-|---------7-12-9--|
|-----7-9--------|--------------------------|-----7-9------12-|
|-7-7------------|--------------------------|-7-7-------------|

      e q     e e   e e    e e e e e q  e       e e e e s s e e
|-----r------------------|----------------|---------------------|
|-(9)-e-9---/14-12-------|---------7-12-9-|-(9)-7-7-9-7-----7---|
|-----s-12---------14-12-|-----7-9--------|-------------7h9---9-|
|-----t------------------|-7-7------------|---------------------|

  e s s e e e s s e   e    e e e e e   e e e    E  E e e e e s s
|------------------------|-------7-11-7-9-9-|--/11-9-7-----------|
|-------7-9-7-----7--/12-|-9-7-9------------|----------9-7-9-----|
|---7h9-------7h9--------|------------------|----------------7h9-|
|-7----------------------|------------------|--------------------|

  s s e e e e s s e e   s    E
|---------------------|----|---r-||
|-7h9-------------7---|-1:-|---e-||
|-----5-------7h9---5-|-4:-|---s-||
|-------7-0-7---------|----|-7-t-||