CAPTAIN - words and music by Ween
**from the album "Quebec"

This song is easy and broke into basically two bars
or measures. Just put youre bridge pickup on , do some
pick sweeps and jam out in A minor.

Captian by Ween

Bass:

G--------------------------
D------7-------------------
A---------5--7-------------
E----------------5----3-55-

Guitar:
E-----------------------------------------------
B-----------------------------------------------
G---5------4------454---------------------------
D-----------------------5-------7----5--454---7-
A-----------------------------------------------
E-----------------------------------------------

***Bass Tabs***by Geoff

Captain

Bass by Gene
h h h h e e q H 4x h h h h e e q H 16xw
G---||----||------|-----|-----r---|------||-||------|-----|-----r---|------||---|----
D---||-4:-||*-7---|-----|-----e---|-----*||-||*-7---|-----|-----e---|-----*||---|----
A---||-4:-||*---5-|-7---|-----s---|-----*||-||*---5-|-7---|-----s---|-----*||-7-|----
E---||----||------|---5-|-(5)-t-3-|-5-5/-||-||------|---5-|-(5)-t-3-|-5-5/-||---|----
Intro Captain...

q q w h w q q q H q e e q q q q q w
G-------r---|---|-------|---|-----r---|-----|-----------|-----|-----------|---|------
D-------e-5-|---|-------|---|-----e---|-----|-----------|-----|-----------|---|------
A---(7)-s---|-5-|-(5)-7-|---|-----s---|-----|-----------|-----|-----------|-5-|------
E-------t---|---|-------|-5-|-(5)-t-5-|-3-5-|-5-5-3-0-0-|-(0)-|-(0)-0-0-3-|---|------

e e q w e e w q e e q q w q q q w e e q w
G-------------|---|-----r---|---|-----------|---|-----------|---|-----------|---|----
D-------------|---|-----e---|---|-----------|---|-----------|---|-----------|---|----
A---(5)-5-5-7-|---|-----s---|---|-----------|---|-----------|-5-|-(5)-5-5-7-|---|----
E-------------|-5-|-(5)-t-3-|-5-|-5-5-3-0-0-|-0-|-(0)-0-0-3-|---|-----------|-5-|----

w
G-----|-----||-----------------------------------------------------------------------
D-----|-----||-----------------------------------------------------------------------
A-----|-----||-----------------------------------------------------------------------
E---5-|-(5)-||-----------------------------------------------------------------------

**Tabbed by Dan
Awesome Sound - Ween Guitar tabs (www.vaxxine.com/mtbhl/ween.htm)