HEY THERE FANCYPANTS - words and music by Ween
**from the album "Quebec"

Hey There Fancypants - by Ween

here's a basic version of Fancy Pants,
play along to the song to get the rhythym correct

intro (D > E > D > C > B > A > G)

verse:

G (slide down to Gflat every 4 beats)

A > D (slide down to Dflat every 4 beats)

then to (D > C > B > A > G )

middle eight (??)

E > A > G (?)
E > A > A7

then to the little rundown again (D > C > B > A > G )

ending:

G > D > G

***Solo*** by ChinoRdrgz

E---------------------------------------------------------------- ----999910-10-10-10-11-11-11-11-12-12-12-12--14-
B--0-----3---0--------------------------0--------------------0-1-2------------------------------------------------
G-----0------------------0--0--0--0-------0------0-0-0-0---0------------------------------------------------------
D------------------0---------------------------0------------------------------------------------------------------
A-----------------------------------------------------------------------------------------------------------------
E-----------------------------------------------------------------------------------------------------------------

E-----------------------------------------------------------------------------------------------------------------
B-----------------------------------------------------------------------------------------------------------------
G----------------------------------------------------------------------14h16------14h16-----14h1617-17-17-18-18-18
D-------12^13-12^13---10-11-12-11-10--------------------16--------16-16------16-16--------------------------------
A------------------------------------------------14-12------------------------------------------------------------
E----------------------------------------------------------15-14--------------------------------------------------

E----------------------------------------16-16-16-17-17-17-18-18-18-19-18-17-16-15-14-12--------------------------
B-----16-16-16-17-17-17-18-18-18----------------------------------------------------------------15-16-17-12-------
G-----------------------------------------------------------------------------------------------------------------
D-----------------------------------------------------------------------------------------------------------------
A-----------------------------------------------------------------------------------------------------------------
E-----------------------------------------------------------------------------------------------------------------
(after the "vocal solo")
E-22p21p20-22p21p20p-20p19p17-20p19p17-19p18p17-19p18p17-17p16p15-17p16p15-15-------------------------------------

Hey there fancypants
Play the songs that make us dance
Play the tunes that make the ladies swoon
A song for all the lonely hearts, shattered dreams and broken parts
But it feels like sunny days are coming soon

Hey Mr. Buttercup
Spin the wheel and try your luck
The spotlight's shining bright tonight on you
Bring along your lady friend, do a dance from way back when
Tonight's the night when all your dreams come true

Hey there sour grapes
Down in the dumps, long in the face
Drinkin' down your dinner, all alone
Feelin' bad, feelin' blue, tonight the rainbow ends with you
So sit on down and make yourself at home... So

Hey there fancypants
Play the songs that make us dance
Play the tunes that make the ladies swoon
A song for all the lonely hearts, shattered dreams and broken parts
But it feels like sunny days are coming soon

***Bass Tab***by Geoff

Hey There Fancypants
Bass by Dean

w e e e e e e e e e e e e e e e e e e e e e e e e
G---||----|-r-||----r---r---r------||---r---r---r-----|---r---r---r------------------
D---||-4:-|-e-||*---e---e---e-----*||---e---e---e-----|---e---e---e------------------
A---||-4:-|-s-||*---s-5-s---s-----*||---s-5-s---s-----|---s---s---s---4/-------------
E---||----|-t-||--3-t---t-3-t-3-2/-||-3-t---t-3-t-3-4/|-5-t-0-t-5-t-5----------------
Intro Verse 1

e e e e e e e e 3x q q q q e e e e e e e e e e e e e e e e
G---||----r---r---r------||---------||----r---r---r------||---r---r---r-----|--------
D---||*---e---e---e-----*||---------||*---e---e---e-----*||---e---e---e-----|--------
A---||*-5-s---s-5-s-5-4/*||-5-3-2---||*---s-5-s---s-----*||---s-5-s---s-----|--------
E---||----t-5-t---t------||-------5-||--3-t---t-3-t-3-2/-||-3-t---t-3-t-3-4/|--------
Verse 2

e e e e e e e e e e e e e e e e 3x q q q q e e e e e e e e
G-----r---r---r-----||----r---r---r------||---------||----r---r---r------||----------
D-----e---e---e-----||*---e---e---e-----*||---------||*---e---e---e-----*||----------
A-----s---s---s---4/||*-5-s---s-5-s-5-4/*||-5-3-2---||*---s-5-s---s-----*||----------
E---5-t-0-t-5-t-5---||----t-5-t---t------||-------5-||--3-t---t-3-t-3-2/-||----------
Solo

e e e e e e e e e e e e e e e e e e e e e e e e 3x q q q q
G-----r---r---r-----|---r---r---r-----||----r---r---r------||---------|--------------
D-----e---e---e-----|---e---e---e-----||*---e---e---e-----*||---------|--------------
A-----s-5-s---s-----|---s---s---s---4/||*-5-s---s-5-s-5-4/*||-5-3-2---|--------------
E---3-t---t-3-t-3-4/|-5-t-0-t-5-t-5---||----t-5-t---t------||-------5-|--------------

e e e e e e e e e e e e e e e e e e e e e e e e e e e e e e e e
G-----r---r---r-----||----r---r---r------||---r---r---r-----|---r---r---r-----|------
D-----e---e---e-----||*---e---e---e-----*||---e---e---e-----|---e---e---e-----|------
A-----s-2-s---s-2---||*---s-7-s---s-7---*||---s-5-s---s-----|---s-2-s---s-2---|------
E---0-t---t-0-t---4/||--5-t---t-5-t---4/-||-3-t---t-3-t-3-2-|-0-t---t-0-t---4/|------
Do do's and ding dong's

e e e e e e e e e e e e e e e e q q q q e e e e e e e e
G-----r---r---r-----|---r---r---r-----|---------|---r---r---r-----|------------------
D-----e---e---e-----|---e---e---e-----|---------|---e---e---e-----|------------------
A-----s-7-s---s-7---|---s-7-s---s-7---|-5-3-2---|---s-5-s---s-----|------------------
E---5-t---t-5-t---4/|-5-t---t-5-t---4/|-------5-|-3-t---t-3-t-3-2/|------------------
Verse 3

s e s e e s e s e e e e e e e e e e e e e e e e e e
G-----------r-------------|---r---r---r-----|---r---r---r----------------------------
D-----------e-------------|---e---e---e-----|---e---e---e----------------------------
A-----------s-------------|---s-5-s---s-----|---s---s---s---4/-----------------------
E---3-3-3-3-t-3-3-3-3-2--/|-3-t---t-3-t-3-4/|-5-t-0-t-5-t-5--------------------------

e e e e e e e e 3x q q q q e e e e e e e e e e e e e e e e
G---||----r---r---r------||---------||----r---r---r------||---r---r---r-----|--------
D---||*---e---e---e-----*||---------||*---e---e---e-----*||---e---e---e-----|--------
A---||*-5-s---s-5-s-5-4/*||-5-3-2---||*---s-5-s---s-----*||---s-5-s---s-----|--------
E---||----t-5-t---t------||-------5-||--3-t---t-3-t-3-2/-||-3-t---t-3-t-3-4/|--------
Verse 4

e e e e e e e e e e e e e e e e 3x q q q q e e e e e e e e
G-----r---r---r-----||----r---r---r------||---------|---r---r---r-------|------------
D-----e---e---e-----||*---e---e---e-----*||---------|---e---e---e-------|------------
A-----s---s---s---4/||*-5-s---s-5-s-5-4/*||-5-3-2---|---s-5-s---s-------|------------
E---5-t-0-t-5-t-5---||----t-5-t---t------||-------5-|-3-t---t-3-t-3-2--/|------------
Outro

e e e e e e e e e e e e e e e e w
G-----r---r---r-------|---r---r---r-----|---||---------------------------------------
D-----e---e---e-------|---e---e---e-----|---||---------------------------------------
A-----s-5-s---s---4--/|-5-s---s-5-s-----|---||---------------------------------------
E---3-t---t-3-t-3-----|---t-5-t---t-5-7-|-3-||---------------------------------------

**Tabbed by Stanley
Awesome Sound - Ween Guitar tabs (www.vaxxine.com/mtbhl/ween.htm)