THE STALLION (PT. 2) - words and music by Ween
*from the album "The Pod"

Is anyone going to actually use this??

The Stallion (Pt. 2) - by Ween

e e e q e q e e e q e q e e e q e q e e e
G---||----r-r-|-----r-----r-------|-----r-----r-----|-----r-----r-------|-----r------
D---||-4:-e-e-|-----e-----e-------|-----e-----e-----|-----e-----e-------|-----e------
A---||-4:-s-s-|-----s-----s-------|-----s-----s-----|-----s-----s-------|-----s------
E---||----t-t-|-1/6-t-1/6-t-1/6-1-|-1/6-t-1/6-t-3-1-|-1/6-t-1/6-t-1/6-4-|-1/6-t-1----
Intro

q e q e e e q e e e e e e e e e q e e e e e e e e e
G------r-------|-----r---r-------|-----r---------r-----|-----r---------r-------|-----
D------e-------|-----e---e-------|-----e---------e-----|-----e---------e-------|-----
A------s-------|-----s---s-------|-----s---------s-----|-----s---------s-------|-----
E---/6-t-1/6-1-|-1/6-t-6-t-6-2-4-|-1/6-t-1/6-1/6-t-6-1-|-1/6-t-1/6-1/6-t-6-1-4-|-1---
e e e e e q e e e q e q e e e e e e e e e e e e
G------r---------r-----|-----r-----r-------|-----r---------r-----|-----r---------r---
D------e---------e-----|-----e-----e-------|-----e---------e-----|-----e---------e---
A------s---------s-----|-----s-----s-------|-----s---------s-----|-----s---------s---
E---/6-t-1/6-1/6-t-6-1-|-1/6-t-1/6-t-1/6-1-|-1/6-t-1/6-1/6-t-6-4-|-1/6-t-1/6-1/6-t---

e q e e e e e e q e e e e e e q 2x e e e q e e e e
G-------|-----r---------r-------||------r---------r------||-----r---r-------|--------
D-------|-----e---------e-------||*-----e---------e-----*||-----e---e-------|--------
A-------|-----s---------s-------||*-----s---------s-----*||-----s---s-------|--------
E---6-1-|-1/6-t-1/6-1/6-t-6-1/-\||--1/6-t-1/6-1/6-t/6-1--||-1/6-t/6-t/6-2-4-|-1/6----

e e e e e q e e e e e e q 4x e e e q e q e e e e
G---r---------r-----||------r---------r------||-----r-----r-------|-----r------------
D---e---------e-----||*-----e---------e-----*||-----e-----e-------|-----e------------
A---s---------s-----||*-----s---------s-----*||-----s-----s-------|-----s------------
E---t-1/6-1/6-t/6-1-||--1/6-t-1/6-1/6-t/6-4\-||-1/6-t-1/6-t-1/6-1-|-1/6-t-1/6-1/6----

e e q e e e e e e e e e e e e e q e e e e e e q
G---r-----|-----r---------------|-----r---------r-------|-----r---------r-----||-----
D---e-----|-----e---------------|-----e---------e-------|-----e---------e-----||*----
A---s-----|-----s---------------|-----s---------s-------|-----s---------s-----||*----
E---t/6-1-|-1/6-t-1/6-1/6/6-2-4-|-1/6-t-1/6-1/6-t/6-1/-\|-1/6-t-1/6-1/6-t/6-4\||-----

e e e e e e q 3x e e e e e e e e e e e e e q e e e
G-------r---------r------||-----r---------------|-----r---------r-------|-----r------
D-------e---------e-----*||-----e---------------|-----e---------e-------|-----e------
A-------s---------s-----*||-----s---------------|-----s---------s-------|-----s------
E---1/6-t-1/6-1/6-t/6-4\-||-1/6-t-1/6-1/6/6-2-4-|-1/6-t-1/6-1/6-t/6-1/-\|-1/6-t/6----

q e e e e e e e e e q 2x e e h q e e e e e e q e
G---r-------||------r---------r--------||-----r----------|-----r---------r-----|-----
D---e-------||*-----e---------e-------*||-----e----------|-----e---------e-----|-----
A---s-------||*-----s---------s-------*||-----s----------|-----s---------s-----|-----
E---t/6-2-4-||--1/6-t-1/6-1/6-t/6-1/-\-||-1/6-t-1/13\--4\|-1/6-t-1/6-1/6-t/6-1-|-1---

e e e e e q e e e e e e e e e e e e e q e e e e
G------r---------r-----|-----r---------------|-----r---------r-----|-----r-----------
D------e---------e-----|-----e---------------|-----e---------e-----|-----e-----------
A------s---------s-----|-----s---------------|-----s---------s-----|-----s-----------
E---/6-t-1/6-1/6-t/6-4\|-1/6-t-1/6-1/6/6-2-4-|-1/6-t-1/6-1/6-t/6-4\|-1/6-t-1/6-1/6---

e e q
G---r-----||-------------------------------------------------------------------------
D---e-----||-------------------------------------------------------------------------
A---s-----||-------------------------------------------------------------------------
E---t/6-4-||-------------------------------------------------------------------------
fade out

***Guitar Tab***Tabbed by GABOU !!! (giantpopples@free.fr)

Hi ! I found the 3 chords needed to play that song while listening to all
request live CD, it sounds really good..

Just play G then slide to A strum it then slide back to E, that's it !

Chords :

G A E

e:--x----x----0--
B:--3----5----0--
G:--4----6----1--
D:--5----7----2--
A:--5----7----2--
E:--x----x----0--

**Tabbed by GABOU !!! (The GiantPopples from France)
Awesome Sound - Ween Guitar tabs (www.vaxxine.com/mtbhl/ween.htm)