SHE FUCKS ME - words and music by Ween
**from the album "The Pod"

E-|-0--1--3--1-||
B-|-1--3--3--3-||
G-|-0--3--3--3-||
D-|-2--3--5--3-||
A-|-3--1--5--1-||
E-|-------3----||

I'm not sure how that works, I worked it from Paintin' the Town Brown and it
went a little something like this (granted, I haven't been able to make much
out from the Pod version):

There's an intro, that goes D, Am, C, Am, C

D Am C Am
(beats:)
1 2 3 4 1 2 3 4 1 2 3 4 1 2 3 4
2---0---------------------0---------------0---------------0-------
3-------3---1-------------1---------------1---------------1---1---
2-------------------------2---1-----------0---1----------2--------
----------------------2---------------2---------------2-----------
-----------------0----------------3---------------0---------------
--------------------------------------------------------------------

They start the "Pork roll egg and cheese" backing stuff in this bit.

Repeat that a couple of times, then the verse starts. It's G, D, Am, C, for
the rest of the song, then they do the intro bit again at the end.

(G) I (D) met her at the (Am) Living (C) Earth show
(G) Crossed the (D) room, the (Am) lights sank (C) low
(G) We're to (D) gether, she (Am) really (C) digs me
(G) She (D) fucks me (Am) (C)

Who could think I could be so happy
When I'm cold I know she's keeping me warm
We're together, she really digs me now
She fucks me

She's in my arms, she's in my heart
Pins and needles up and down my spine
We're together, she really digs me
She fucks me

***Bass Tab***by Geoff

She f**ks me

There's only the two main progressions with some minor improvision occasioanally. Get
stoned and lie down on your living room floor. Then you'll be able to play like the cd.

Q e Q e Q e q q Q e Q e w h h h h h h w
G---||----|---------|-----------|---------|---||-------|------|------|-----||-||-----
D---||-4:-|---------|-----------|---------|-8-||*---10-|----8-|---10-|----*||-||*----
A---||-4:-|-7-7-8-8-|-10-10-8-8-|-7-7-8-8-|---||*-8----|-10---|-8----|-10-*||-||*----
E---||----|---------|-----------|---------|---||-------|------|------|-----||-||-----
Intro

h h h h h h w h h h h h h w h h Q e
G---------|------|-------|----||-||-------|------|------|-----||-||--------|---------
D---10----|-8----|-10----|-8-*||-||*---10-|----8-|---10-|----*||-||*-10----|-8-8-----
A------10-|---10-|----10-|---*||-||*-8----|-10---|-8----|-10-*||-||*----10-|---------
E---------|------|-------|----||-||-------|------|------|-----||-||--------|---------

h h h w h h h q e e h h w h h Q e h
G------|-------|----||-||-------|-----------|------|-----||-||--------|--------|-----
D------|-10----|-8-*||-||*---10-|----8-8----|---10-|----*||-||*-10----|-8-8----|-----
A---10-|----10-|---*||-||*-8----|-10-----10-|-8----|-10-*||-||*----10-|-----10-|-----
E------|-------|----||-||-------|-----------|------|-----||-||--------|--------|-----

h h w h h h h h h w h h Q e h h h w h
G---------|----||-||-------|------|------|-----||-------|--------|-------|---|-------
D---10----|-8-*||-||*---10-|----8-|---10-|----*||-10----|-8-8----|-10----|-8-|-10----
A------10-|---*||-||*-8----|-10---|-8----|-10-*||----10-|-----10-|----10-|---|-------
E---------|----||-||-------|------|------|-----||-------|--------|-------|---|-------

h Q e h h e Q w
G------|--------|--------|---||------------------------------------------------------
D------|-8-8----|-10-----|---||------------------------------------------------------
A---10-|-----10-|----8-8-|-8-||------------------------------------------------------
E------|--------|--------|---||------------------------------------------------------

**Tabbed by Jeff Coleman
Awesome Sound - Ween Guitar tabs (www.vaxxine.com/mtbhl/ween.htm)