ALONE - words and music by Ween
**from the album "The Pod"

This is the basic pattern for Alone. There are slight variations each time
they play it, so kinda improvise with it a little.

I've added some chords to play along with it... although i play it up half a step

E |=============================================================
B |=============================================================
G |=============================================================
D |=====================1=2==2=1=======================1=3=4====
A |=2=1==========1=4==4==========4=2==2=1==========1=4=======4==
E |=====4=2==2=4==========================4=2==2=4==============

Alone

F# C# E B
When the life inside no doubt has died
F# C# B
Then you've turned your head around
F# C# E B
You tried to pay at the end of the day
F# C# F#
It's you, again, alone

Alone confined, the mess in your mind
And you can't relate to them
You've reaped and sewn, but little is known
By those who aren't alone

Why should a man learn not again
What he has learned before
He's overcome but must succumb
To what he's living for

He tried and tried although survived
He missed he's falling short
The little known, his heart of stone
Will make him feel alone

***Bass Tab***by Geoff

Alone
The bass is almost inaudible on this track but it mainly follows the guitar.

w 3x h e e q h e e q h q q h e e q h
||------||---r---||--r-----------||---------------|-----------|--------------|-------
||--4:--||*--e--*||--e-----------||*--------------|--------1--|--2--2--1-----|-------
||--4:--||*--s--*||--s--2--1-----||*-----------1--|--4--4-----|-----------4--|--2----
||------||---t---||--t--------4--||---2--2--4-----|-----------|--------------|-------
(Intro)/When the life.....

e e q h e e q h q q Q h q q 2x
---------|--------------|-----------|-------------|--------------||------------------
---------|--------------|-----1--3--|--4----------|-------------*||------------------
2--1-----|-----------1--|--4--------|-----4--(4)--|--(4)--1-----*||------------------
------4--|--2--2--4-----|-----------|-------------|----------4---||------------------

h e e q h q q h e e q h e e q h e e q H q
------------|-----------|--------------|--------------|--------------|--------|------
------------|--------1--|--2--2--1-----|--------------|--------------|--------|------
---------1--|--4--4-----|-----------4--|--2--2--1-----|-----------1--|--4--1--|------
2--2--4-----|-----------|--------------|-----------4--|--2--2--4-----|--------|------
You tried.....

H q h e e q h e e q h q q h e e q h e e q
------|--------------|--------------|-----------|--------------|--------------|------
------|--------------|--------------|--------1--|--2--2--1-----|--------------|------
2--2--|--2--2--1-----|-----------1--|--4--4-----|-----------4--|--2--2--1-----|------
------|-----------4--|--2--2--4-----|-----------|--------------|-----------4--|------
Alone.....

h e e q h q q h q q h q q
------------|-----------|-----------|-----------||-----------------------------------
------------|--------1--|-----------|-----------||*----------------------------------
---------1--|--4--4-----|--2--2--4--|--2--------||*----------------------------------
2--2--4-----|-----------|-----------|-----0--1--||-----------------------------------

h e e q h q q h e e q h e e q h e e q h q q
------------|-----------|--------------|--------------|--------------|---------------
------------|--------1--|--2--2--1-----|--------------|--------------|-----1--3------
---------1--|--4--4-----|-----------4--|--2--2--1-----|-----------1--|--4------------
2--2--4-----|-----------|--------------|-----------4--|--2--2--4-----|---------------
You've reaped/Why should.....

h h q q 2x h e e q h q q h e e q h e e q
|--------|--------------||--------------|-----------|--------------|-----------------
|--4-----|-------------*||--------------|--------1--|--2--2--1-----|-----------------
|-----4--|--(4)--1-----*||-----------1--|--4--4-----|-----------4--|--2--2--1--------
|--------|----------4---||--2--2--4-----|-----------|--------------|-----------4-----
He's overcome.....

h e e q h q q h q q h e e q h e e q h q q
|--------------|-----------|-----------|--------------|--------------|---------------
|--------------|-----------|-----------|--------------|--------------|--------1------
|-----------1--|--4--4--1--|--2--4--1--|--2--2--1-----|-----------1--|--4--4---------
|--2--2--4-----|-----------|-----------|-----------4--|--2--2--4-----|---------------
He tried.....

h e e q h e e q h e e q h q q h q q H e
|--------------|--------------|--------------|-----------|-----------|---------------
|--2--2--1-----|--------------|--------------|-----------|-----------|---------------
|-----------4--|--2--2--1-----|-----------1--|--4--4--1--|--2--4--1--|--2--(2)--2----
|--------------|-----------4--|--2--2--4-----|-----------|-----------|---------------

h e e q h q q h e e q h e e q h e e q
|-------||---------------|-----------|--------------|--------------|-----------------
|-------||*--------------|--------1--|--2--2--1-----|--------------|-----------------
|--(2)--||*-----------1--|--4--4-----|-----------4--|--2--2--1-----|-----------1-----
|-------||---2--2--4-----|-----------|--------------|-----------4--|--2--2--4--------
The little/(Outro)

h q q h h q q 2x q H
|-----------|--------|--------------||-----r--||-------------------------------------
|-----1--3--|--4-----|-------------*||-----e--||-------------------------------------
|--4--------|-----4--|--(4)--1-----*||-----s--||-------------------------------------
|-----------|--------|----------4---||--0--t--||-------------------------------------

**Tabbed by Jerm and Todd
Awesome Sound - Ween Guitar tabs (www.vaxxine.com/mtbhl/ween.htm)