OH MY DEAR (FALLING IN LOVE) - words and music by Ween
**from the album "The Pod"

This is another totally brown one from The Pod.

Oh My Dear (Falling In Love) - by Ween

T(G)ell me where you c(F#)ome from was it h(E)eaven above
O(C)h my d(Bm)ear I must be f(D)alling in l(G)ove
Can you climb the sunny peaks of a fortress in love
Oh my dear I must be falling in love
Did I tell you I want more than what you?re really made of
Oh my dear I must be falling in love
Can you scope a blurble blunder and admit that you are young
Oh my dear I must be falling in love

***Solo Version 1 - Tabbed By Joshua Gjellestad

Timing not accurate but it's easy enough

E---------------------------------------------------------------------------
B---------3---3h5--5/8---8/10-8---8h10--8-10--b(12)-(12)r10--8h10--8b9r8b9r8
G-4--4-5--------------------------------------------------------------------
D---------------------------------------------------------------------------
A---------------------------------------------------------------------------
E---------------------------------------------------------------------------

E-------------------------------------------------------------------------------------
B---------3--3-3h5-3h5-5b6r5---3/5--5/8--8/10--10/12--12/14---15/17-15-15b17r15b(17)r15
G----4-5------------------------------------------------------------------------------
D-------------------------------------------------------------------------------------
A-------------------------------------------------------------------------------------
E-------------------------------------------------------------------------------------

Key h-hammer on /-slide b-bend r-release bend ()-notes while bent
***

***Solo Version 2 - Tabbed by Tony Januszewski

E|==================================================8=9=8==========|
B|===================8=8/10=8======8=8=10=10/12=12=========8/10=8==|
G|=====4=4=5=5/7=7/9===============================================|
D|=================================================================|
A| ================================================================|
E|=================================================================|

E|=============================0/2/3/5/7/9/10=10/13\10==10/13\10/13\10===|
B|=======================================================================|
G|=====4=5=7==7=7/9=7/9=12\9=============================================|
D|=======================================================================|
A| ======================================================================|
E|=======================================================================|

Tell me where you come from was it heaven above
Oh my dear I must be falling in love
Can you climb the sunny peaks of a fortress above
Oh my dear I must be falling in love
Did I tell you I want more than what you?re really made of
Oh my dear I must be falling in
L(G)oooooooooooooooooooove

***Version 2*** by Peter Cook

Here's the chords I play

G D Em Em C Am D G

So it'd be...

(G) Tell me where you (D)come from was it (Em)
Heaven above?
(C) Oh my (Am) dear I must (D)be falling in (G) love

The solo is a dork fest of notes. It's not too hard to figure out, though.

***Version 3*** by allenrufty

Oh my dear (falling in love)

|-3---3---0---0---0---2---3-|
|-3---3---0---1---1---3---3-|
|-0---0---0---0---2---2---0-|
|-0---0---2---2---2---0---0-|
|-2---0---2---3---0-------2-|
|-3---2---0---------------3-|

***Bass Tab***by Geoff

Oh my dear (falling in love)
It could be the bass notes of the acoustic guitar I'm tabbing, but after a few listens,
I'm pretty sure it's soft bass.

w 4x h h w h h h w
||------||---r---||--||---------|-----|-------|--5--4--||------|--7--||-----|--------
||--4:--||*--e--*||--||*--5--4--|--2--|--(2)--|--------||--2:--|-----||--5--|--(5)---
||--4:--||*--s--*||--||*--------|-----|-------|--------||--4:--|-----||-----|--------
||------||---t---||--||---------|-----|-------|--------||------|-----||-----|--------
Intro Verse 1

4x h h w h h h w 2x
-||--||---------|-----|-------|--5--4--||------|--7--||-----|--------||--||----------
*||--||*--5--4--|--2--|--(2)--|--------||--2:--|-----||--5--|--(5)--*||--||*---------
*||--||*--------|-----|-------|--------||--4:--|-----||-----|-------*||--||*---------
-||--||---------|-----|-------|--------||------|-----||-----|--------||--||----------
Solo

h h w h h h w 2x h h w
------|-----|-------|--5--4--||------|--7--||-----|--------||--------|-----|---------
5--4--|--2--|--(2)--|--------||--2:--|-----||--5--|--(5)--*||--5--4--|--2--|--(2)----
------|-----|-------|--------||--4:--|-----||-----|-------*||--------|-----|---------
------|-----|-------|--------||------|-----||-----|--------||--------|-----|---------
Verse 2

h w 7x
|------|--r--|------||---r---||------------------------------------------------------
|--2:--|--e--|--4:--||*--e--*||------------------------------------------------------
|--4:--|--s--|--4:--||*--s--*||------------------------------------------------------
|------|--t--|------||---t---||------------------------------------------------------

**Tabbed out by Jordie
**jjjordie@collegeclub.com
**http://home.collegeclub.com/jjjordie
Awesome Sound - Ween Guitar tabs (www.vaxxine.com/mtbhl/ween.htm)