MONONUCLEOSIS - words and music by Ween
*from the album The Pod

I think this is how they play it live, it might be down half
a step on the album. I saw a video of this song and they played it in
the key of G

Mononucleosis

C (strum once)

C F
When you came into the Pod
C G
You told me that something was wrong
F C
Said you wasn't having no more fun
F C
And you want to lick the sun
F C
Couldn't say it was any fun
A# G
Oh duuuuuuuuude

G (hold it)

C F
Now you're on the couch
C G
You can't even move your fucking head
F C
Tell me that you wish you was dead
F C
Dude I really don't wish you was dead
F C
Better stay in your sweaty mucous bed
A# G
Oh duuuuuuuuude

G (fiddle with it)

C F
Can't have a smoke
C G
Can't even enjoy a little brew
F C
What the hell's my buggy gonna do?
F C
Can't even pet the horsies in the zoo
F C
Little miss Mandee is in this too
A# G
Oh duuuuuuuuude

***Bass Tab***by Geoff

Mononucleosis

h w w w w w w w w w
||------|--r--|------|-----|-------|-----|-----|-----|-----|-----|-----|-----|-------
||--2:--|--e--|--4:--|--4--|--(4)--|-----|--2--|-----|-----|-----|-----|-----|-------
||--4:--|--s--|--4:--|-----|-------|--2--|-----|--2--|-----|-----|--2--|-----|--2----
||------|--t--|------|-----|-------|-----|-----|-----|--2--|--0--|-----|--0--|-------
Intro Verse 1

w w w w w e Q e e e e h h h h h h
|-----|-----|-----|-----|--r--|--r-----------------|--------|--------|--------|------
|-----|-----|-----|-----|--e--|--e-----------------|--------|--2--2--|--------|------
|-----|--2--|-----|-----|--s--|--s-----------------|--2--2--|--------|--2--2--|------
|--0--|-----|--5--|--2--|--t--|--t--2--2--2--2--2--|--------|--------|--------|------
Verse 2

h q q h h e Q q q h q q h q q h q q e Q q
---------|--------|--------------|-----------|-----------|-----------|---------------
---------|--------|--------------|-----------|-----------|-----------|---------------
---------|--------|--2--2--2-----|-----------|--2--2-----|-----------|--2--2--2------
2--2--1--|--0--0--|-----------2--|--0--0--0--|--------2--|--0--0--0--|---------------

q Q e q q h h h h e H e e Q e e e e e e q
---|--------------|--------|--------|--------r--|-----r-----r--------|--------r------
---|--------------|--------|--------|--------e--|-----e-----e--------|--------e------
2--|--------7-----|-----4--|-----4--|--------s--|-----s-----s--------|--------s------
---|--5--5-----5--|--2-----|--2-----|--2--2--t--|--2--t--2--t--0--1--|--2--2--t------
Solo

e e e e e e e e e e e e e e e e e e e e e e e e
------------|-----r-----------r--------|-----r--------------------|-----------r------
------------|-----e-----------e--------|-----e--------------------|-----------e------
------------|-----s-----------s--------|-----s--------------------|-----------s------
2--0--2--2--|--2--t--2--0--2--t--2--0--|--2--t--2--0--2--2--0--2--|--0--2--2--t------

e e e e e e e e e e e e e e e e e e e e e e e e
---r--------|-----r-----------------r--|-----------------r--------|------------------
---e--------|-----e-----------------e--|-----------------e--------|------------------
---s--------|-----s-----------------s--|-----------------s--------|------------------
2--t--0--2--|--2--t--2--0--2--2--2--t--|--2--2--2--2--2--t--2--0--|--2--2--2--0------

e e e e e e e e e e e e e e e e e e e e e e e e
------------|-----------r-----r--------|--------------r-----------|-----------r------
------------|-----------e-----e--------|--------------e-----------|-----------e------
------------|--2--2--2--s--2--s--0--2--|--2--0--2--2--s--0--2--2--|--2--2--2--s------
2--0--2--0--|-----------t-----t--------|--------------t-----------|-----------t------

e e e e e e e e e e e e e e e e e e e e e e e e
---r--------|--------------------------|-----r-----r-----r--------|------------------
---e--------|--------------------------|-----e-----e-----e--------|------------------
2--s--0--2--|--2--0--2--2--2--0--2--2--|--2--s--2--s--2--s--2--2--|--2--0--2--2------
---t--------|--------------------------|-----t-----t-----t--------|------------------

e s s q e e e e e e e e e e e e e e q h h h q
---------r--|-----r-----------r--------|-----------------------|--------|------------
---------e--|-----e-----------e--------|-----------------------|--------|--2--2------
0--2--2--s--|--2--s--2--0--2--s--2--0--|--2--0--2--0-----------|--2--2--|------------
---------t--|-----t-----------t--------|--------------5--5--2--|--------|------------
Verse 3

q h h h h h h e q h e h h e Q q q h q q
---|--------|--------|--------|--------------|--------|--------------|---------------
2--|--------|--------|--------|--------------|--------|--------------|---------------
---|--2--2--|--------|--------|--------2--2--|--------|--2--2--2-----|---------------
---|--------|--2--2--|--0--0--|--0--0--------|--0--0--|-----------2--|--0--0--0------

e Q q q q e e e e e e h e e e e w
|--------------|--r-----------------r--|-----r-----------|-----|-------||------------
|--------------|--e-----------------e--|-----e-----------|-----|-------||*-----------
|--2--2--2--2--|--s-----------------s--|-----s-----------|-----|-------||*-----------
|--------------|--t--5--5--5--5--5--t--|--2--t--2--2--2--|--2--|--(2)--||------------

w 13x h
r---||------|--r--||-----------------------------------------------------------------
e--*||--2:--|--e--||-----------------------------------------------------------------
s--*||--4:--|--s--||-----------------------------------------------------------------
t---||------|--t--||-----------------------------------------------------------------
Feedback

**Tabbed by Jerm and Todd
Awesome Sound - Ween Guitar tabs (www.vaxxine.com/mtbhl/ween.htm)