LAURA - words and music by Ween
**from the album "The Pod"

Each line of tab above fits over a line of the lyrics. So for every line in
a given verse/chorus/whatever, that?s how many times you gotta play the
riff. Pretty easy mang.

Laura - by Ween

Verse:

e------------------------------------------------12-12-12-12-12-12-12
B----5-------5-------7-------7-------8-------8---10-10-10-10-10-10-10
G--6---6---6---6---8---8---8---8---9---9---9---8-11-11-11-11-11-11-11
D7-------7-------9-------9-------10------10------12-12-12-12-12-12-12
A--------------------------------------------------------------------
E--------------------------------------------------------------------

Chorus:

A G C G A G C G
e-5-5-5-5---3-3---3-3-3-3---3-3---5-5-5-5---3-3---5-5-5-5---3-3-------
B-5-5-5-5---3-3---5-5-5-5---3-3---5-5-5-5---3-3---5-5-5-5---3-3-------
G-6-6-6-6---4-4---5-5-5-5---4-4---6-6-6-6---4-4---5-5-5-5---4-4-------
D-7-7-7-7---5-5---5-5-5-5---5-5---7-7-7-7---5-5---5-5-5-5---5-5-------
A-7-7-7-7---5-5---3-3-3-3---5-5---7-7-7-7---5-5---3-3-3-3---5-5-------
E-5-5-5-5---3-3-------------3-3---5-5-5-5---3-3-------------3-3-------

LYRICS
Verse 1:
The great mang sits on the chair, and why the hell am I with ya
And if you told me that it wasn?t there, why the hell am I with ya
You know I really don?t care why the hell no one?s gone
I told my mommy that it was OK why the hell no one?s gone

Chorus:
Laura
Laura

Bridge: (guitar tacet)
Oh baby I cut myself

Verse 2:
So if you pull the gun that you aim, why the hell am I with ya
And if your tooth you wanted to stay, why the hell am I with ya
Little Eddie Dingle is going away, and why the hell no one?s gone
Somebody wants to come and play, why the hell no one?s gone

Chorus

Bridge: (guitar jangles over first chord)
You know sumfing
I got sumfing
I got sumfing
I got sumfing for all the people in the world

Solo (it?s a multi-tracked thing that I didn?t bother figuring out

***Bass Tab***by Geoff

Laura

w 4x q q q q e e q q q q q q q e
||------||------|--------||--------6-----|-----------8-----|--------9-------|--------
||--4:--||*-----|-------*||--------7--7--|-----------9--9--|--------10--10--|--------
||--4:--||*-----|-------*||--------------|-----------------|----------------|--------
||------||---5--|--(5)---||--5--5--------|--7--7--7--------|--8--8----------|--10----
Intro Verse 1

e e e q q q q q q e e q q q q q q q q e
------------11------|--------6-----|-----------8-----|--------9-------|--------------
------------12--12--|--------7--7--|-----------9--9--|--------10--10--|--------------
--------------------|--------------|-----------------|----------------|--------------
10--10--10----------|--5--5--------|--7--7--7--------|--8--8----------|--10--10------

e q q q q q q e e e e q q q q q q e e e
----11------||---------6-----|--------------8-----|--------9-------|-----------------
----12--12--||*--------7--7--|--------------9--9--|--------10--10--|-----------------
------------||*--------------|--------------------|----------------|-----------------
10----------||---5--5--------|--7--7--7--7--------|--8--8----------|--10--10--10-----

e q q 2x e e e e e e e e e e e e e e e e 3x e
----11-------||--||---------------r--------r--|--------------r--------r---||---------
----12--12--*||--||*--------------e--------e--|--------------e--------e--*||---------
------------*||--||*--------------s--------s--|--3--3--3--3--s--------s--*||---------
10-----------||--||---5--5--5--5--t--3--3--t--|--------------t--3--3--t---||--5------
Chorus

e e e e e e e e e e e e e e e w w w
---------------------|--------------------------|-----|--r--|-----|-------||---------
---------------------|--------------------------|-----|--e--|-----|-------||*--------
---------------------|--3--3--3--3--3-----------|-----|--s--|-----|-------||*--------
5--5--5--5--3--3--3--|-----------------3--3--3--|--3--|--t--|--3--|--(3)--||---------
Bridge

q q q q e e e e q q q q q q e e e e q q 2x
------6-----|--------------8-----|--------9-------|------------------11------||------
------7--7--|--------------9--9--|--------10--10--|------------------12--12\*||------
------------|--------------------|----------------|-------------------------*||------
5--5--------|--7--7--7--7--------|--8--8----------|--10--10--10--10----------||------
Verse 2

q q q q e e e e q q e e e e e e e e q q q q
------6-----|--------------8-----|--------------------9------|----------11------|----
------7--7--|--------------9--9--|--------------------10-----|----------12--12--|----
------------|--------------------|---------------------------|------------------|----
5--5--------|--7--7--7--7--------|--8--8--8--8--8--8------8--|--10--10----------|----

q q e e e e e e e e e e e e e e e e e e e e e e
------------------|--------------------------|--------------------------|------------
------------------|--------------------------|--------------------------|------------
------------------|--------------------------|--------------------------|------------
5--5--5--5--5--5--|--7--7--7--7--7--7--7--7--|--8--8--8--8--8--8--8--8--|--10--10----

e e e e q e e e e e e e e e e e e e e e e e e
------------------|--------------r-----------|--------------------------|------------
------------------|--------------e-----------|--------------------------|------------
------------------|--------------s-----------|--3--3--3--3--3-----------|------------
10--10--10--10/15\|--5--5--5--5--t--3--3--3--|-----------------0--2--3--|--3--3------
Chorus

e e e e e e e e e e e e e e e e e e e e e e e e
------r--------r--|--------------r--------r--||---------------r--------r--|----------
------e--------e--|--------------e--------e--||*--------------e--------e--|----------
------s--------s--|--3--3--3--3--s--------s--||*--------------s--------s--|--3--3----
3--5--t--3--3--t--|--------------t--3--3--t--||---5--5--5--5--t--3--3--t--|----------

e e e e e e 2x q H e e q e e q e e q e e e e
------r--------r---||--------|-------r-----|--------------------|--------------------
------e--------e--*||--------|-------e-----|--------------------|--------------------
3--3--s--------s--*||--------|-------s-----|--------------------|--------------------
------t--3--3--t---||--5--5--|--(5)--t--4--|--5--5--4--5--5--4--|--5--5--4--5--5-----
Bridge

e e q q q q e e e e e e e e q q e e e e e
------|--------6-----|--------------8-----------|--------9---------------|-----------
------|--------7--7--|--------------9--9--9--9--|--------10--10--10--10--|-----------
------|--------------|--------------------------|------------------------|-----------
5--5--|--5--5--------|--7--7--7--7--------------|--8--8------------------|--10-------
Solo

e e e e e q q q q q e e e e e e e e q q e e
-------------------------|-------------|--------------8-----------|--------9---------
-------------------------|--7--7--7--7\|--------------9--9--9--9--|--------10--10----
-------------------------|-------------|--------------------------|------------------
10--10--10--10--10--10/-\|-------------|--7--7--7--7--------------|--8--8------------

e e e e e e e e e e q q e e e e q q e e e
--------|------------------11--------------|--------------------|--------------------
10--10--|------------------12--12--12--12--|--------------------|--------------------
--------|----------------------------------|--------------------|--------------------
--------|--10--10--10--10------------------|--5--5--5--5--5--5--|--3--3--3--3--3-----

e e e e e e e e e e e e e e e e e q q q q e e
---|--------------------------|--------------------------|--------------|------------
---|--------------------------|--------------------------|--------------|------------
---|--5--5--5--5--5--5--5--5--|-----------------------3--|--------------|------------
3--|--------------------------|--3--3--3--3--3--3--3-----|--5--5--5--5--|--3--3------

e e e e e e e e e e q e e e e e e e e e e q q q
------------------|-----------------------|--------------------------|--------6------
------------------|-----------------------|--------------------------|--------7------
------------------|-----------------------|--5--5--5--5--5--5--5--5--|---------------
3--3--3--3--3--3--|--2--2--2--2--2--2--2--|--------------------------|--5--5---------

q e e e e e e e e q q q q e e e e e e e e
---|--------------8-----------|--------9-------|------------------11-----------------
7--|--------------9--9--9--9--|--------10--10--|------------------12--12--12--12-----
---|--------------------------|----------------|-------------------------------------
---|--7--7--7--7--------------|--8--8----------|--10--10--10--10---------------------

e e e e q q e e e e e e e e q q q q e e e
|--------------6-----|--------------8-----------|--------9-------|-------------------
|--------------7--7--|--------------9--9--9--9--|--------10--10--|-------------------
|--------------------|--------------------------|----------------|-------------------
|--5--5--5--5--------|--7--7--7--7--------------|--8--8----------|--10--10--10-------

e e e e e e e e e e e e e e e e e e e e e 2x
----11--------------||---------------r--------r--|--------------r--------r---||------
----12--12--12--12--||*--------------e--------e--|--------------e--------e--*||------
--------------------||*--------------s--------s--|--3--3--3--3--s--------s--*||------
10------------------||---5--5--5--5--t--3--3--t--|--------------t--3--3--t---||------

q H w h
------|-------|--r--|------|-----||--------------------------------------------------
------|-------|--e--|--2:--|-----||--------------------------------------------------
------|-------|--s--|--4:--|--2--||--------------------------------------------------
5--5--|--(5)--|--t--|------|-----||--------------------------------------------------

**Tabbed out by Jordie
**jjjordie@collegeclub.com
**http://home.collegeclub.com/jjjordie
Awesome Sound - Ween Guitar tabs (www.vaxxine.com/mtbhl/ween.htm)