AWESOME SOUND - words and music by Ween
**from the album "The Pod"

this is only the first verse, but all the others are practically the same
i've also included the power-chords to play for those who can't read
tabs. It may be played up half a step...

(the "|" things signify the end of each line)

(i'm not sure about the B at the end of the first line or the F# in the
third; it shouldn't be too hard to figureout)

Awesome Sound - by Ween

FIRST VERSE
E A B E B E A E D
e|------------------------|----------------------|
b|------------------------|----------------------|
g|------------------------|----------------------|
d|---2-2-2-2------2-------|---2-2-2-2-----2-2-0--|
a|-----------0-2----2-----|-----------0-0--------|
e|------------------------|----------------------|

E A B D E F# E A B D E
e|------------------------|----------------------|
b|------------------------|----------------------|
g|------------------------|----------------------|
d|---2-2-2-2------0-2-4^--|---2-2-2-2-----0-2----|
a|-----------0-2----------|-----------0-2--------|
e|------------------------|----------------------|
"STOP THE TAPE!"

***Version 2*** by posternutbag

e------------------------------------------------
b------------------------------------------------
g------------------------------------------------
d----12-x-x-12-x-x-12-x-x-12-x-x-10-10-/-7-\-12--
a----12-x-x-12-x-x-12-x-x-12-x-x-10-10-/-7-\-12--
e----10-x-x-10-x-x-10-x-x-10-x-x--8--8-/-5-\-10--

i like to have my whammy on a octive lower and wah-wah on with the toe down
and heavy flanging. for the solo just mess around in d

***Bass Tab***by Geoff

Awesome Sound
I don't think there's any bass in this song but I'll try and tab the quiter of the guitars.

q q q q e e e Q q q q q q e q q e q q q q q e e e q e q
G---||----|---------|------------|---------|------------|---------|-------------|----
D---||-4:-|---------|------------|---------|------------|---------|-------------|----
A---||-4:-|-8-8-8-8-|---6---8-6^-|-8-8-8-8-|-----8-8-6^-|-8-8-8-8-|---6---8-8-8-|----
E---||----|---------|-8---8------|---------|-7-7--------|---------|-8---8-------|----

q q q q e e e q Q q H q q q q e e e q q s s q q q q e q q Q q H
G-----------|-----------|---r-|---------|----------------|---------|---------|---r---
D-----------|-----------|---e-|---------|----------------|---------|-------9-|---e---
A---8-8-8-8-|---6-7-8-8-|-8-s-|-8-8-8-8-|---6-7-8-8^-9\8-|-8-8-8-8-|-----8---|-8-s---
E-----------|-8---------|---t-|---------|-8--------------|---------|-7-7-----|---t---
Stop the tape (release be*d at *)

w q q q q e e e q e q q q q q e e e q Q q q q q e e e Q q q
G---|-r-|---------|--------------|---------|-----------|---------|------------|------
D---|-e-|---------|-----------7^-|---------|-----------|---------|------------|------
A---|-s-|-8-8-8-8-|---6---8-8----|-8-8-8-8-|---6---8---|-8-8-8-8-|---6---8-6^-|-8----
E---|-t-|---------|-7---7--------|---------|-7---7---7-|---------|-8---8------|------
*

q q q e e e q Q q q q q e q Q q q q q q h e e q q q q q w q H
G---------|-----------|---------|---------|---------|-r-r-----|-------r-|-r-|---r----
D---------|-----------|---------|---------|---------|-e-e-----|-------e-|-e-|---e----
A---8-8-8-|---6---8---|-8-8-8-8-|-----8---|-8-8-8-8-|-s-s-8-8-|-8-8-8-s-|-s-|-8-s----
E---------|-7---7---7-|---------|-7-7---7-|---------|-t-t-----|-------t-|-t-|---t----
Stop it

q q q q e e e q Q 3x q q q q e e e q Q w e e q q q e e H q q
G---||----------|------------||---------|-----------|-r-|-r---------|-----r-|--------
D---||*---------|-----------*||---------|-----------|-e-|-e---------|-----e-|--------
A---||*-8-8-8-8-|---6---8---*||-8-8-8-8-|-8-8-8-8-8-|-s-|-s-8-8-8-8-|-----s-|-8-8----
E---||----------|-7---7---7--||---------|-----------|-t-|-t---------|-8-8-t-|--------

q q e e e q e e e q q q q e e e Q q Q q q e q q q q
G-------|---------------|---------|------------|-r---r---|-r-----r-||----------------
D-------|---------------|---------|------------|-e---e---|-e-----e-||----------------
A---8-8-|---6---8-8---6-|-8-8-8-8-|---6---8-9^-|-s-8-s-8-|-s-8-8-s-||----------------
E-------|-8---8-----8---|---------|-8---8------|-t---t---|-t-----t-||----------------

**Tabbed by Desert Yam
Awesome Sound - Ween Guitar tabs (www.vaxxine.com/mtbhl/ween.htm)