DON'T SWEAT IT - words and music by Ween
**from the album "The Pod"

The verse and chorus chords are Am + D+ G5 (or G)
Then the solo is just: G + D + C. It then goes round back to Am +D +G5
The last chord played during the last chorus is Am. Then the tape stops.
The solo loosely follows the chords ---with a few fuckups at G5-D.
The best thing is to listen to the song itself, and then hear for yourself.
Lyrical help from Australian Dan's page: http://www.box.net.au/~dan/ween/
Don't Sweat It - By Ween

Am D G5 C
E---- E--- E--- E---
B---- B--- B--- B---
G-5-- G-7- G--- G-5-
D-7-- D-7- D-5- D-5-
A-7-- A-5- A-5- A-3-
E-5-- E--- E-3- E---

Am
I'd like to see you before I go.
D G
There's a few things I'd like to do.
Am
And when you're gone, you'll be gone for long.
D G
And soon I'll be gone too.

Am D G
But don't sweat it. Don't sweat it. Don't sweat it.
Am D G
Don't sweat it. Don't sweat it. Don't sweat it.

Are you happy with the color of your tea
Could you use some sugar now(???)
You're satified with your boy or your girl.
Your little butter cup.

But don't sweat it. Don't sweat it. Don't sweat it.
Don't sweat it. Don't sweat it. Don't sweat it.

(Am, D,G) X 4
(G5, D, C) X 2

G5 D C
E---------------------------------------------------------------------------
B---------------------------------------------------------------------------
G-----------------------------------5-7-(7)-7b-4-7b-(7)---------------------
D-4-4-4-4b-5v-5h7-(7)-7bp5-7------------------------7br-5-5-4h5p4--1b-0-(0)-
A---------------------------------------------------------------------------
E---------------------------------------------------------------------------

G5 D C Am

E-------------------------------------------------------------
B-------------------------------------------------------------
G----------------------------------------------------5-(5)----
D-5v-7-7br--5--------------5-7-7p5----------5-(5)-------------
A--------------------7-5-7-----------------7-5-------------7--
E-------------------------------------------------------------

* b-bend br-bendrelease v-vibrate h-hammeron p-pulloff.

I'd like to see you before I go.
There's a few things I'd like to do.
And when you're gone, you'll be gone for long.
And soon I'll be gone too.

But don't sweat it. Don't sweat it. Don't sweat it.
Don't sweat it. Don't sweat it. Don't sweat it.

***Bass Tab***by Geoff

Don't Sweat It

w 2x h w 8x w 8x w 8x w 8x
||------||---r---||------|--r--||---r---||--||---r---||--||---r---||--||---r---||----
||--4:--||*--e--*||--2:--|--e--||*--e--*||--||*--e--*||--||*--e--*||--||*--e--*||----
||--4:--||*--s--*||--4:--|--s--||*--s--*||--||*--s--*||--||*--s--*||--||*--s--*||----
||------||---t---||------|--t--||---t---||--||---t---||--||---t---||--||---t---||----
Intro Verse 1 Chorus Verse 2

w 8x e e e e e e e e e e e e e e e e e e e e e
||---r---||-----------------------|--------------------------|-----------------------
||*--e--*||-----------------------|--------------------------|-----------------------
||*--s--*||-----------------------|--------------------------|-----------------------
||---t---||--5--5--5--5--5--5--5--|--5--5--5--5--5--5--5--5--|--5--5--5--5--5--5-----
Chorus Bridge

e e e e e e e e e e e e e e e e e e e e e e e e
------|--------------------------||---------------------------|----------------------
------|--------------------------||*--------------------------|----------------------
---5--|--5--5--5--5--5-----------||*--------------------------|----------------------
5-----|-----------------2--3--0--||---5--5--5--5--5--5--5--5--|--5--5--5--5--5--5----

e e e e e e e e e e e e e e e e q 2x e e e e e e e
------|--------------------------|------------------------||-------------------------
------|--------------------------|-----------------------*||-------------------------
------|-----------------------5--|--5--5--5--5--5--------*||-------------------------
5--5--|--5--5--5--5--5--5--5-----|-----------------2--3---||--5--5--5--5--5--5--5----

e e e e e e e e e e e e e e e e e e e e e e Q
---|--------------------------|--------------------------|-----------------r--|------
---|--------------------------|--------------------------|-----------------e--|------
---|--------------------------|-----------------------5--|--5--5--5--5--5--s--|------
5--|--5--5--5--5--5--5--5--5--|--5--5--5--5--5--5--5-----|-----------------t--|------

h h e e e e q q Q e q e e Q e e e q Q e q e e
r-----|--------------------|-----------------|-----------------|---------------------
e-----|--------------------|-----------------|-----------------|---------------------
s-----|--5--5--5--5--5--5--|--3--3--3--3--3--|--3--3--3--2--2--|---------------------
t--3--|--------------------|-----------------|-----------------|--3--3--3--3--0------

h q e e h Q e e e e e e e q h q e e w h Q
|--------------|-----------|-----------------------|--------------|-----|------------
|--------------|-----------|-----------------------|--------------|-----|------------
|--5--5--5-----|--3--3--3--|--3--3--3--2--3--2--0--|--------------|--5--|--3--3------
|-----------5--|-----------|-----------------------|--3--3--3--0--|-----|------------
Solo

e e e e e e e q h q e e q q e e e e e e e e e
---|-----------------------|--------------|--------------------|---------------------
---|-----------------------|--------------|--------------------|---------------------
3--|--3--2--3--2--3--2--0--|--------------|--5--5--5-----5-----|--3--3--3--3--3------
---|-----------------------|--3--3--3--0--|-----------5-----5--|---------------------

e e e e e e e e e q w 8x w 8x
---------|-----------------------||---r---||--||---r---||----------------------------
---------|-----------------------||*--e--*||--||*--e--*||----------------------------
3--3--3--|--3--2--3--2--3--2--0--||*--s--*||--||*--s--*||----------------------------
---------|-----------------------||---t---||--||---t---||----------------------------
Verse 3 Chorus

**Tabbed by RJ Ramon
Awesome Sound - Ween Guitar tabs (www.vaxxine.com/mtbhl/ween.htm)