CAN YOU TASTE THE WASTE? - words and music by Ween
**from the album "The Pod"

This is a pretty little ditty that you might expect to hear at a dirty-ass
strip bar in a perfect world. M above a chord means to palm-mute it, and *
above a chord means to play that chord with an accent.

Can U Taste The Waste? - by Ween

(feedback)

Part 1:
M M M M M M M
* * * * *
e---------------------------------------------------------------------
B---------------------------------------------------------------------
G---7/9-9-9-9-9-7/9-9-9-9-9-7/9-9-0-----------------------------------
D---7/9-9-9-9-9-7/9-9-9-9-9-7/9-9-0-----------------------------------
A---5/7-7-7-7-7-5/7-7-7-7-7-5/7-7-0-----------------------------------
D-------0-0-0-0-----0-0-0-0-----0-0-----------------------------------

Part 2:
M M M M M M M M
* * * *
e---------------------------------------------------------------------
B---------------------------------------------------------------------
G---7---7-7-7-7-7-7-7-7-7-7-7-7-7-0-----------------------------------
D---7---7-7-7-7-7-7-7-7-7-7-7-7-7-0-----------------------------------
A---5---5-5-5-5-5-5-5-5-5-5-5-5-5-0-----------------------------------
D---5---5-5-5-5-5-5-5-5-5-5-5-5-5-0-----------------------------------
Can U taste the waste?

The song structure is: play part 1 four times (no vocals), and then play
parts 1 and 2 together with vocals, 7 or 8 times.

***Bass Tab***by Geoff

Can U Taste The Waste?
Another out of tune song. Should be in E, but it's a little close to Eb by the time it made cd.

w 8x e e e e e e e e e e e e e e e e 4x e
||------||---r---||--||--------------------------|--------------------------||-------
||--4:--||*--e--*||--||*-------------------------|-------------------------*||-------
||--4:--||*--s--*||--||*--5h7--------------7-----|--------------5h7--------*||--5----
||------||---t---||--||--------0--0--0--0-----0--|--0--0--0--0-------0--0---||-------
Intro

e e e e e e e e e e e e e e e e e e e e e e e
----------------------|-------------------------|-------------------------|----------
----------------------|-------------------------|-------------------7-----|----------
h7--------------7-----|--------7-----5h7--------|-------------------------|----------
----0--0--0--0-----0--|--0--0-----0-------0--0--|--3h5--5--5--5--5-----5--|----------

e e e e e e q e e e e e e e e e e e e e e e e e e e
--------------------|------------------------|-------------------------|-------------
--------------------|------------------------|-------------------------|-------------
--------------------|--5h7-----------5h7-----|--------7-----5h7--------|-------------
5--5--5--5--5\3--3--|-------0--0--0-------0--|--0--0-----0-------0--0--|--3h5--5-----
Can u taste the waste?

e e e e e e e e e e e q e e e e e e e e e e e e
---------------|----------------------||--------------------------|------------------
---------7-----|----------------------||*-------------------------|------------------
---------------|----------------------||*--5h7--------------7-----|--------7---------
5--5--5-----5--|--5--5--5--5--5\3--3--||--------0--0--0--0-----0--|--0--0-----0------
Can u taste the waste?

e e e e e e e e e e e e e e e e e e q 3x e e e e e e
-----------|-------------------------|-----------------------||----------------------
-----------|-------------------7-----|----------------------*||----------------------
5h7--------|-------------------------|----------------------*||--5h7-----------------
-----0--0--|--3h5--5--5--5--5-----5--|--5--5--5--5--5\3--3---||-------0--0--0--0-----
Can u taste the waste?

e e e e e e e e e e e e e e e e e e
------|-------------------------|-------------------------|--------------------------
------|-------------------------|-------------------7-----|--------------------------
7-----|--------7-----5h7--------|-------------------------|--------------------------
---0--|--0--0-----0-------3--3--|--3h5--5--5--5--5-----5--|--------------------------

e e e e e e q e e e e h w w H
--------------------|----------r--r--|--r--|--r--|--r--||----------------------------
--------------------|----------e--e--|--e--|--e--|--e--||----------------------------
--------------------|--5h7-----s--s--|--s--|--s--|--s--||----------------------------
5--5--5--5--5\3--3--|-------0--t--t--|--t--|--t--|--t--||----------------------------
Can u taste the waste?

**Tabbed out by Jordie
**jjjordie@collegeclub.com
**http://home.collegeclub.com/jjjordie
Awesome Sound - Ween Guitar tabs (www.vaxxine.com/mtbhl/ween.htm)