MOLLY - words and music by Ween
**from the album "The Pod"

Molly - by Ween

F F E F
Tell me what you want and I'll give it to you
F F E F
You name the Esu, baby, I'll name the glue
F F E F
You name the spongy funky, I'll go on and name it too
Mollymollymolly..

A hardened glob of hardened moosey in the zoo
You go fetch that moosey and you know I'm gonna fetch it too
You fetch that moosey and you know he's gonna dig it too
Mollymollymolly...

Show it to me, baby, that tells me who is who
Morning is approaching and it's time to start anew
Eddie Dingle's coming over and Bobby's Uncle Lou
Mollymollymolly...

The "arpschnitt up?" Van Winkle and a tinkle-dinkle-doo
We'll have a white Xmas with that snow "schnitt up?" Van Winkle say "Fuck You"
Cuz' thank you mang I'm with "schnee schnitt up?" Van Winkle say "Fuck You"
Mollymollymolly...

Tell me what you want and I'll give it to you
You name the Esu, baby, I'll name the glue
You name the spundy funky, I'll go on and name it too
Mollymollymolly..

Carve me a glob of hardened moosey in the zoo
Well, you fetch that moosey and you know I'm going to fetch it too
You fetch that moosey and you know he's going to dig it too
Mollymollymolly...

**Tabbed Geoff

***Bass tab*** sent in by Geoff

Molly - by Ween

Molly

e e e e e e e e e e e e e e e e e e e e e e e e e e e e e e e
G---||----|---r---r---r-----||----r---r---r---r-|---r---r---r---r-|---r---r---r------
D---||-4:-|---e---e---e-----||*---e---e---e---e-|---e---e---e---e-|---e---e---e------
A---||-4:-|---s---s---s-----||*---s---s---s---s-|---s---s---s---s-|---s---s---s------
E---||----|-5-t-5-t-5-t-5-0-||--1-t-1-t-1-t-1-t-|-1-t-1-t-1-t-1-t-|-1-t-1-t-1-t-1----
Intro

e e e e e e e e e e e e e e e e e 6x e e e e e e e e e e e e e e e e
G-----||----r---r---r---r-|---r---r---r------||---r---r---r---r-|---r---r---r--------
D-----||*---e---e---e---e-|---e---e---e-----*||---e---e---e---e-|---e---e---e--------
A-----||*---s---s---s---s-|---s---s---s-----*||---s---s---s---s-|---s---s---s--------
E---0-||--1-t-1-t-1-t-1-t-|-1-t-1-t-1-t-1-0--||-1-t-1-t-1-t-1-t-|-1-t-1-t-1-t-1-0----
Verse 1 Chorus

w w e e e e e e e e e e e e e e e e 6x e e e e e e e e e e H w
G---|-r-|-r-||----r---r---r---r-|---r---r---r------||---r---r---r---r-|---r-r-|-r----
D---|-e-|-e-||*---e---e---e---e-|---e---e---e-----*||---e---e---e---e-|---e-e-|-e----
A---|-s-|-s-||*---s---s---s---s-|---s---s---s-----*||---s---s---s---s-|---s-s-|-s----
E---|-t-|-t-||--1-t-1-t-1-t-1-t-|-1-t-1-t-1-t-1-0--||-1-t-1-t-1-t-1-t-|-1-t-t-|-t----
Verse 2 Chorus

e e e e e e e e e e e e e e e e 6x e e e e h w h e e e e e e e
G---|-||----r---r---r---r-|---r---r---r------||---r---r-r-|-r-|-r---r---r-|---r------
D---|-||*---e---e---e---e-|---e---e---e-----*||---e---e-e-|-e-|-e---e---e-|---e------
A---|-||*---s---s---s---s-|---s---s---s-----*||---s---s-s-|-s-|-s---s---s-|---s------
E---|-||--1-t-1-t-1-t-1-t-|-1-t-1-t-1-t-1-0--||-1-t-1-t-t-|-t-|-t-1-t-1-t-|-1-t-1----
Verse 3 Chorus

e e e e e e e e e e e e e e e e e e e e e 6x e e e e e e e e e e H
G---r---r-----||----r---r---r---r-|---r---r---r------||---r---r---r-----|---r-r-|----
D---e---e-----||*---e---e---e---e-|---e---e---e-----*||---e---e---e-----|---e-e-|----
A---s---s-----||*---s---s---s---s-|---s---s---s-----*||---s---s---s-----|---s-s-|----
E---t-1-t-1-0-||--1-t-1-t-1-t-1-t-|-1-t-1-t-1-t-1-0--||-1-t-1-t-1-t-1-0-|-1-t-t-|----
Verse 4 Chorus

w w e e e e e e e e e e e e e e e e 6x e H e w w w w w w
G---r-|-r-||----r---r---r---r-|---r---r---r------||---r-r-|-r-|-r-|-r-|-r-|-r-|-r----
D---e-|-e-||*---e---e---e---e-|---e---e---e-----*||---e-e-|-e-|-e-|-e-|-e-|-e-|-e----
A---s-|-s-||*---s---s---s---s-|---s---s---s-----*||---s-s-|-s-|-s-|-s-|-s-|-s-|-s----
E---t-|-t-||--1-t-1-t-1-t-1-t-|-1-t-1-t-1-t-1-0--||-1-t-t-|-t-|-t-|-t-|-t-|-t-|-t----
Verse 5 Chorus

w e e e e e e e e e e e e e e e e 6x e e H w 18x
G---|-r-||----r---r---r---r-|---r---r---r------||---r-r-||--r--||--------------------
D---|-e-||*---e---e---e---e-|---e---e---e-----*||---e-e-||*-e-*||--------------------
A---|-s-||*---s---s---s---s-|---s---s---s-----*||---s-s-||*-s-*||--------------------
E---|-t-||--1-t-1-t-1-t-1-t-|-1-t-1-t-1-t-1-0--||-1-t-t-||--t--||--------------------
Verse 6 Slowed down and out

**Tabbed Geoff
Awesome Sound - Ween Guitar tabs (www.vaxxine.com/mtbhl/ween.htm)