DEMON SWEAT - words and music by Ween
**from the album "The Pod"

#----------------------------------PLEASE NOTE---------------------------------#
#This file is the author's own work and represents their interpretation of the #
#song. You may only use this file for private study, scholarship, or research. #
#------------------------------------------------------------------------------##
From: sydb@wam.umd.edu (Sydb)

Tab-Demon Sweat-Ween

(Badly) transcribbled By Ken Gorski (sydb@wam.umd.edu)

The Chords to the song are just:

D# Bbm

Bbm D#

Repeated endlessly (listen for the keyboard parts)

Here is a OVER-SIMPLYFIED version of the main opening riff:

-----------------------------------------
------------------------------------------
-6-8b9b8--6--8----------------------------
----------------5---5b6b5------------------
------------------------------------------
------------------------------------------

Each time this is played, it changes somewhat.

 

***Bass Tab***by Geoff

Demon Sweat
It's just another keyboard part and octave lower than the main one, not bass (I think.....),
but that's what I'm tabbing as the bass part. And there's some huge octaver bringing the
bass down a heap on the organ bit, so what I've tabbed are the right notes (if the songs was
tuned properly), but not the right pitch.

h e Q w h e Q w h e Q 2x w h e Q
||------|--r--------||------|--r--------|-----|--r---------||--||------|--r----------
||--4:--|--e--------||*-----|--e--------|-----|--e--------*||--||*-----|--e----------
||--4:--|--s--6--8--||*-----|--s--------|--6--|--s--6--8--*||--||*-----|--s----------
||------|--t--------||---6--|--t--6--4--|-----|--t---------||--||---6--|--t--6--4----
Intro Drums

w h e Q 4x w h e Q w h e Q 4x w h e
|-----|--r---------||--||------|--r--------|-----|--r---------||--||------|--r-------
|-----|--e--------*||--||*-----|--e--------|-----|--e--------*||--||*-----|--e-------
|--6--|--s--6--8--*||--||*-----|--s--------|--6--|--s--6--8--*||--||*-----|--s-------
|-----|--t---------||--||---6--|--t--6--4--|-----|--t---------||--||---6--|--t--6----
Verse 1

Q w h e Q 2x w h e Q w h e Q 5x w h e
---|-----|--r---------||--||------|--r--------|-----|--r---------||-----|--r---------
---|-----|--e--------*||--||*-----|--e--------|-----|--e--------*||-----|--e---------
---|--6--|--s--6--8--*||--||*-----|--s--------|--6--|--s--6--8--*||-----|--s---------
4--|-----|--t---------||--||---6--|--t--6--4--|-----|--t---------||--6--|--t--6------
Verse 2

Q w w h h h h h Q e w h h h h w h
---|-----|--r--||--------|--------|-----------|-----|--------|--------|-----|--------
---|-----|--e--||--------|--------|-----------|-----|--------|--------|-----|--------
---|--6--|--s--||--8--6--|--------|--6--6--6--|--6--|--8--6--|--------|--6--|--6-----
4--|-----|--t--||--------|--9--8--|-----------|-----|--------|--9--8--|-----|--------
Organ and Guitars

e q e H e e w w e q q e e e 3x h h h h
---------||------r-----|-----|-----|---------------------||--||---------|------------
---------||*-----e-----|-----|-----|--------------------*||--||*--------|------------
6--6--6--||*--8--s--6--|--8--|--6--|--6--6--6--6--6--6--*||--||*--8--6--|------------
---------||------t-----|-----|-----|---------------------||--||---------|--9--8------

h Q e w 2x
|-----------|------||----------------------------------------------------------------
|-----------|-----*||----------------------------------------------------------------
|--6--6--6--|--6--*||----------------------------------------------------------------
|-----------|------||----------------------------------------------------------------
The tapes slowes down to about F and ends

**Tabbed by Ken Gorski
Awesome Sound - Ween Guitar tabs (www.vaxxine.com/mtbhl/ween.htm)