CAPTAIN FANTASY - words and music by Ween
**from the album "The Pod"

Here's a very popular song tabbed by Bart Hutchinson.

Captain Fantasy - by Ween

C# B
Please would you like to be somewhere floating free?
A B F#
Seems my destiny. Captain Fantasy.
C# B
Take a bit and go down beneath the reaches of sound.
A B F#
You could be with me. Captain Fantasy.

C#
And when I'm there, I'm here.
B
And when you're near, I'm there.
A B F#
The only words of your life. Captain Fantasy.
C#
And when I'm here, I'm there.
B
And when you're near, I'm here.
A B F#
The only words of your life. Captain Fantasy.

Please would you like to be somewhere floating free?
Seems my destiny. Captain Fantasy.
So take a bit and go down beneath the reaches of sound.
You could be with me. Captain Fantasy.

And when I'm there, I'm here.
And when you're near, I'm there.
The only words of your life. Captain Fantasy.
And when I'm here, I'm there.
And when you're near, I'm here.
The only words of your life. Captain Fantasy.

Wow! Yowww! Fantasy. Fantasy.

So please would you like to be somewhere floating free?
Seems my destiny. Captain Fantasy.
So take a bit and go down beneath the reaches of sound.
You could be with me. Captain Fantasy.

***Bass Tab***by Geoff

Captain Fantasy
This track has a seperate tune on either side of the acutal Captain Fantasy song, and it's lovely so I've put it in. Also I'm not sure whether the bass plays crochets or quavers during the verses so do as you wish.

e e e e e e e e 3x e e e e e e e w 3x h q
||------||------r-----r-----r-----r---||-----r-----r-----r-----||-------||-----------
||--4:--||*-----e-----e-----e-----e--*||-----e-----e-----e-----||*-----*||-----------
||--4:--||*--4--s--4--s--4--s--4--s--*||--4--s--4--s--4--s-----||*-----*||-----------
||------||------t-----t-----t-----t---||-----t-----t-----t--2--||---2---||--2--2-----
Intro

q e e e e e e e e e e e e h w w w w w
---|-----r-----r-----r-----r--|-----r-----r--r--|--r--|--r--||--r--|--r--|--r--|-----
---|-----e-----e-----e-----e--|-----e-----e--e--|--e--|--e--||--e--|--e--|--e--|-----
---|--4--s--4--s--4--s--4--s--|--4--s--4--s--s--|--s--|--s--||--s--|--s--|--s--|-----
2--|-----t-----t-----t-----t--|-----t-----t--t--|--t--|--t--||--t--|--t--|--t--|-----

w e e e e e e e e e e e e e e e e e e e e e e e
r--||---------------------------|--------------------------|-------------------------
e--||*--------------------------|--------------------------|-------------------------
s--||*--4--4--4--4--4--4--4--4--|--4--4--4--4--4--4--4--4--|--2--2--2--2--2--2--2----
t--||---------------------------|--------------------------|-------------------------
Verse 1

e e e e e e e e e q q q q q q q q q q q q q
---|--------------------------|--------------|--------------|--------------|---------
---|--------------------------|--------------|--------------|--------------|---------
2--|--2--2--2--2--2--2--2--2--|--------------|--2--2--2--2--|--------------|---------
---|--------------------------|--5--5--5--5--|--------------|--2--2--2--2--|--2------

q q q 2x e e e e e e e e e e e e e e e e e e e
----------||--||---------------------------|--------------------------|--------------
---------*||--||*--------------------------|--------------------------|--------------
---------*||--||*--4--4--4--4--4--4--4--4--|--4--4--4--4--4--4--4--4--|--2--2--2-----
2--2--2---||--||---------------------------|--------------------------|--------------
Chorus

e e e e e e e e e e e e e e e e e e e e e e e e
---------------|--------------------------|--------------------------|---------------
---------------|--------------------------|--------------------------|---------------
2--2--2--2--2--|--2--2--2--2--2--2--2--2--|--------------------------|--2--2--2------
---------------|--------------------------|--5--5--5--5--5--5--5--5--|---------------

e e e e e e e e e e e e e e e e e e e e e 2x
---------------|--------------------------|---------------------------||--||---------
---------------|--------------------------|--------------------------*||--||*--------
2--2--2--2--2--|--------------------------|--------------------------*||--||*--------
---------------|--2--2--2--2--2--2--2--2--|--2--2--2--2--2--2--2--2---||--||---------

e e e e e e e e e e e e e e e e e e e e e e e e
------------------------|--------------------------|--------------------------|------
------------------------|--------------------------|--------------------------|------
4--4--4--4--4--4--4--4--|--4--4--4--4--4--4--4--4--|--2--2--2--2--2--2--2--2--|------
------------------------|--------------------------|--------------------------|------
Verse 2

e e e e e e e e q q q q q q q q q q q q q q q
------------------------|--------------|--------------|--------------|---------------
------------------------|--------------|--------------|--------------|---------------
2--2--2--2--2--2--2--2--|--------------|--2--2--2--2--|--------------|---------------
------------------------|--5--5--5--5--|--------------|--2--2--2--2--|--2--2--2------

q 2x e e e e e e e e e e e e e e e e e e e e e
----||--||---------------------------|--------------------------|--------------------
---*||--||*--------------------------|--------------------------|--------------------
---*||--||*--4--4--4--4--4--4--4--4--|--4--4--4--4--4--4--4--4--|--2--2--2--2--2-----
2---||--||---------------------------|--------------------------|--------------------
Chorus

e e e e e e e e e e e e e e e e e e e e e e e e
---------|--------------------------|--------------------------|---------------------
---------|--------------------------|--------------------------|---------------------
2--2--2--|--2--2--2--2--2--2--2--2--|--------------------------|--2--2--2--2--2------
---------|--------------------------|--5--5--5--5--5--5--5--5--|---------------------

e e e e e e e e e e e e e e e e e e e 2x h h e Q
---------|--------------------------|---------------------------||--------|----------
---------|--------------------------|--------------------------*||--------|----------
2--2--2--|--------------------------|--------------------------*||--4--4--|--4--4----
---------|--2--2--2--2--2--2--2--2--|--2--2--2--2--2--2--2--2---||--------|----------
Break

h h h e Q h e Q h e Q h q q q q e e e e e
---|--------|-----------|-----------|-----------|--------------|---------------------
---|--------|-----------|-----------|-----------|--------------|---------------------
4--|--2--2--|--2--2--2--|-----------|--2--2--2--|--------------|---------------------
---|--------|-----------|--5--5--5--|-----------|--2--2--2--2--|--2--2--2--2--2------

e e e e h h e Q h h h e Q h e Q h e Q h
------------|--------|-----------|--------|-----------|-----------|-----------||-----
------------|--------|-----------|--------|-----------|-----------|-----------||*----
------------|--4--4--|--4--4--4--|--2--2--|--2--2--2--|-----------|--2--2--2--||*----
2--2--2--2--|--------|-----------|--------|-----------|--5--5--5--|-----------||-----

e e e e e e e e e 2x h h e Q h h h e Q h e Q h
----------------------------||--------|-----------|--------|-----------|-------------
---------------------------*||--------|-----------|--------|-----------|-------------
---------------------------*||--4--4--|--4--4--4--|--2--2--|--2--2--2--|-------------
2--2--2--2--2--2--2--2--2---||--------|-----------|--------|-----------|--5--5--5----

e Q h h h e Q q q w w w q q q q q q
|-----------|--------|-------------|-----|--r--|--r--||--|--------------|------------
|-----------|--------|-------------|-----|--e--|--e--||--|--4-----------|------------
|--2--2--2--|--------|-----------2/|--4--|--s--|--s--||--|--------------|------------
|-----------|--2--2--|--2--2--2----|-----|--t--|--t--||--|-----4--4--4--|--5--5------
Outro
q q w w w w
------|-----|-----|----|----|--------------------------------------------------------
------|-----|-----|----|----|--------------------------------------------------------
------|-----|-----|----|----|--------------------------------------------------------
5--5--|--2--|--2--|--4/|/7--|--------------------------------------------------------
Ring out

**Tabbed by Bart Huthcinson
Awesome Sound - Ween Guitar tabs (www.vaxxine.com/mtbhl/ween.htm)