THE STALLION (PT.1) - words and music by Ween
**From the Album "The Pod"

It's hard to pick anything out in this song. Maybe I was foolish to try..... well
here's what I got. Two notes underlined together should be played as one (ring out
for the length of the second note). Oh, and put in weird bends and stuff where you
like. Oh, and it's in between F and F#, I've gone with tuning up to match the cd,
rather than down.

The Stallion (Pt. 1) - by Ween

Q h e e e h q w w Q h e e e h q
||-------|--------3--3-----4--------|--------||------------3--3-----4--------|-------
||--16:--|--------1--1--3-----3--3--|--3--3--||*-----------1--1--3-----3--3--|-------
||--8-:--|--------------------------|--------||*-----------------------------|-------
||-------|--1-----------------------|--------||---1--------------------------|-------
Intro ----- ----- ----- Verse 1 ----- -----

w w 3x q q q q e e e e e e e e 2x Q h e e e
-------||--||----------------------------------------||--||------------3--3-----4----
3--3--*||--||*--------------------------------------*||--||*-----------1--1--3-------
------*||--||*--1--1--1--0--1--1--2--2--3--4--5--6--*||--||*-------------------------
-------||--||----------------------------------------||--||---1----------------------
----- Chorus Verse 2 -----

h q w w 4x h h h q q h h h q q q q q q e e e
------|---------||--||------------------|-----3-----------|--------------------------
3--3--|--3--3--*||--||*-----4-----4--3--|-----------4--3--|--------------------------
------|--------*||--||*-----------------|-----------------|--1--1--1--0--1--1--2-----
------|---------||--||---1-----1--------|--1-----1--------|--------------------------
----- ----- Bridge Chorus

e e e e e q q q q e e e e e e e e q q q q e
----------------------|--------------------------------------||----------------------
----------------------|--------------------------------------||*--3--3--3--2--3------
2--3--3---/---5\1-----|--1--1--1--0--1--1--2--2--3--4--5--6--||*---------------------
----------------------|--------------------------------------||----------------------

e e e e e e e 2x e e e Q q e e e Q q 8x q q q q
----------------------||--||------------2---------------------||--||-----------------
3--4--4--5--6--7--8--*||--||*--------------3-----------4--3--*||--||*----------------
---------------------*||--||*--------------------------------*||--||*--1--1--1--0----
----------------------||--||---1--1--1--------1--1--1---------||--||-----------------
Verse 3 Chorus

e e e e e e e e 2x q q q q e e e e e e e e 2x q
-------------------------||--||----------------------------------------||--||---2----
------------------------*||--||*--3--3--3--2--3--3--4--4--5--6--7--8--*||--||*-------
1--1--2--2--3--4--5--6--*||--||*--------------------------------------*||--||*-------
-------------------------||--||----------------------------------------||--||--------

q q q e e e e e e e e 2x q q q q e e e e e e e e
2--2--1--2--2--3--3--4--5--6--7---||--||---------------------------------------------
---------------------------------*||--||*--3--3--3--2--3--3--4--4--5--6--7--8--------
---------------------------------*||--||*--------------------------------------------
----------------------------------||--||---------------------------------------------

2x Q w h e w q e e e e q 2x Q w h e e e e e e
-||--||------3--3--3--|--3--3-----------4------||-----3--3--3--|---------------------
*||--||*-----1--1--1--|--1--1--3--3--3-----3--*||-----1--1--1--|--3--3--3--3--3------
*||--||*--------------|-----------------------*||--------------|---------------------
-||--||---1-----------|------------------------||--1-----------|---------------------
Verse 4 --------------------- ----------

e e e e e e e e e q q q q q e e e e e e e e 2x e q
------------------------4-----||----------------------------------------||-----r-----
3--3--3--3--3--3--3--3-----3--||*--------------------------------------*||--3--e-----
------------------------------||*--1--1--1--0--1--1--2--2--3--4--5--6--*||-----s-----
------------------------------||----------------------------------------||-----t-----
Chorus

e h w
---r--r--||--------------------------------------------------------------------------
3--e--e--||--------------------------------------------------------------------------
---s--s--||--------------------------------------------------------------------------
---t--t--||--------------------------------------------------------------------------

***Guitar Tab***Tabbed by GABOU !!! (giantpopples@free.fr)

First part :

E harmonics

e||--------12----------------------------------------------||
B||--------12----------------------------------------------||
G||--------12----------------------------------------------||
D||--------------------------------------------------------||
A||---------------------7--10--7-slow bend-----------------||
E||---0----------------------------------------------------||

Second part :

A A A A A A A A B B C C

e||---5---5---5---5-----5-5-5-5-7-7-8--8-------------||
B||---5---5---5---5-----5-5-5-5-7-7-8--8-------------||
G||---6---6---6---6-----6-6-6-6-8-8-9--9-------------||
D||---7---7---7---7-----7-7-7-7-9-9-10-10-----------||
A||---7---7---7---7-----7-7-7-7-9-9-10-10-----------||
E||---5---5---5---5-----5-5-5-5-7-7-8--8-------------||

Third Part

e||---7----3----0----3------------------------------------------||
B||------------------------7----4----0----4---------------------||
G||-------------------------------------------------------------||
D||-------------------------------------------------------------||
A||-------------------------------------------------------------||
E||-------------------------------------------------------------||

 

**Tabbed by Geoff
Awesome Sound - Ween Guitar tabs (www.vaxxine.com/mtbhl/ween.htm)