SORRY CHARLIE - words and music by Ween
**from the album "The Pod"

Sorry Charlie - by Ween

G
Things didn't work out the way you had planned it
G C
Things fell apart at the seems
C
Whats yours is what you took with you
C D
And what you have has shattered their dreams
D G
Oh and now your cold and sleepy
G C
Christ how did it come to this
C
Hold on to those you thought were your loved ones
C D
They'll be the ones you miss

(chorus)
D G
And now your standing at the station
G C
Tryin to take what I aint got to give
C D C D
Oh and I'm so sorry charlie, I got my whole life to live
D G
So you just call your friends at college,
G C
Wonder why you didn't say,
C D C
And your boss is comin down soon, chuck, he's drunk
C D G
So you can't stay no you can't stay

***
(solo) - by RobMan

e-----------------------------------------------------------------------------------
B---------8-------------8------------------------12------------------------------
G-7-7-7---7---9-9-9---9---14-14-14-14---14--4-4-4-4-4-5-7-5-4--
D--------------9------------12-------------------------------------------------5b
A------------------------------------------------------------------------------------
E------------------------------------------------------------------------------------

I know its a bit more than just this, but the rest is easy enough to figure out.
***

G C
You did nothing to deserve this, God didn't treat ya square
C D
Oh it all slipped through your fingers, and it all seems so unfair
D G
And your girlfriend shes in high school
G C
And she says she loves you alot,
C D C D
Lord knows she can't support you, so you better sell more pot

(chorus)

***Bass Tab***by Geoff

Sorry Charlie

Q e e e e e 2x Q e e e e e 4x Q e e
||------||------------------------||--||------------------------||--||---------------
||--4:--||*----------------------*||--||*-------------4--------*||--||*--------------
||--4:--||*--------4/6--4--------*||--||*--2--2--4/6-----6--4--*||--||*--4--4--6-----
||------||---2--2----------6--4---||--||------------------------||--||---------------
Verse 1

e e e 2x Q e e e e e 2x Q e e e e e 4x Q e
----------||--||------------------------||--||----------------------||--||-----------
---------*||--||*----------------------*||--||*--------------------*||--||*----------
4--------*||--||*--------4/6--4--------*||--||*--2--2--6--4--2--4--*||--||*--4--4----
---6--4---||--||---2--2----------6--4---||--||----------------------||--||-----------
Verse 2

e e e e 2x Q e e e e e 2x Q e e e e e 2x Q q
-------------||--||------------------------||--||------------------------||----------
3--6--3--6--*||--||*----------------------*||--||*-------------4-----4--*||----------
------------*||--||*--------4/6--4--------*||--||*--2--2--4/6-----6-----*||--4--4----
-------------||--||---2--2----------6--4---||--||------------------------||----------
Chorus

q e q e e e e q Q e e e e e e e e e e e e e Q
3--3--|--3/4-----------------|--------------------|--------------------------|-------
------|-------6--3--------6--|--------4--1--------|--------------6--3--------|-------
------|-------------6--4-----|--2--2--------4--1--|--4--4--4--4--------6--4--|-------
------|----------------------|--------------------|--------------------------|--2----

e e e e e Q e e e e e Q e e e e e e e e e e e
-----------------|--------------------|----------------------|-----------------------
-----------------|--------------------|--------4/6--4--------|-----------------4-----
---4/6--4--------|-----------4--------|--2--2----------6--4--|--2--2--2--2--6--------
2----------6--4--|--2--2--6-----6--4--|----------------------|-----------------------

e e Q e e e e e 2x Q e e e e e Q e e e e e
------||------------------------||----------------------|--------------------||------
------||*--------6/8--6--------*||-------------4--------|--------------------||*-----
6--4--||*--4--4----------8--6--*||--2--2--4/6-----6--4--|--4--4--------------||*-----
------||------------------------||----------------------|--------0--0--1--2--||------

q q s s q e 3x q q s s e e e Q e e e e e 2x Q
-------------------||-----------------------||------------------------||--||---------
------------------*||-----------------------||*----------------------*||--||*--------
------------2--2--*||-----------------------||*--------4/6--4--------*||--||*--2-----
2--2--2--2---------||--2--2--2--2--0--0--1--||---2--2----------6--4---||--||---------
Verse 3

e e e e e 4x Q e e e e e Q e e e e e Q e e e
------------------||----------------------|--------------------||--------------------
--------4-----4--*||--------6/8--6--------|--------------------||*-------------------
2--4/6-----6-----*||--4--4----------8--6--|--4--4--6--4--------||*--------4/6--4-----
------------------||----------------------|--------------6--4--||---2--2-------------
Verse 4

e e 2x Q e e e e e e e e e e e e e 3x Q e e e e
-------||----------------------||----------------------------||----------------------
------*||--------4/6--4--------||*-----------------4--------*||--------6/8--6--------
------*||--2--2----------6--4--||*--2--2--2--2--6-----6--4--*||--4--4----------8-----
6--4---||----------------------||----------------------------||----------------------

e Q e e e e e Q e e e e e 2x Q e e e e e
---|--------------------||------------------------||--||-----------------------------
---|--------------------||*----------------------*||--||*-------------4-----4--------
6--|--4--4--6--4--------||*--------4/6--4--------*||--||*--2--2--4/6-----6-----------
---|--------------6--4--||---2--2----------6--4---||--||-----------------------------
Chorus

2x Q e e e e e 2x Q e e e e e Q e e e e e
-||--||------------------------||----------------------|--------------------||-------
*||--||*--------6/8--6--------*||-------------4--------|--------------------||*------
*||--||*--4--4----------8--6--*||--2--2--4/6-----6--4--|--4--4--6--4--------||*------
-||--||------------------------||----------------------|--------------6--4--||-------

Q e e e e e 2x Q e e e e e Q e e e e e Q e e e e
-------------------||--------------------|--------------------||---------------------
------------------*||-----------4--6--6--|--4-----4--6--4-----||*--------6--8--6-----
---------4-----4--*||--2--2--6-----------|-----6-----------6--||*--4--4--------------
2--2--6-----6------||--------------------|--------------------||---------------------

e 2x Q e e e e e Q e e e e e q q s s q e 3x q q
----||--------------------|--------------------||----------------------||------------
8--*||-----------4--6--4--|--------------------||*--------------------*||------------
---*||--2--2--6-----------|--4--4--6--4--------||*--------------2--2--*||------------
----||--------------------|--------------6--4--||---2--2--2--2---------||--2--2------

s s e e e Q e e e e e e e e e e e e e 2x e e e e
---------------|--------------------||----------------------------||-----------------
---------------|--------------------||*--------------------------*||-----------------
---------------|--------------------||*--2--2--2--2--2--2--2--2--*||-----------------
2--2--0--0--1--|--2--2--2--2--2--2--||----------------------------||--2--2--2--2-----
Solo

e e e e e e e e e e e e 2x e e e e e e e e e e e
------------||----------------------------||--------------------------|--------------
------------||*--------------------------*||--------------------------|--------------
------------||*--4--4--4--4--4--4--4--4--*||--2--2--2--2--2--2--2--2--|--4--4--4-----
2--2--2--2--||----------------------------||--------------------------|--------------

e e e e e Q e e e e e 2x Q e e e e e 2x Q e e
---------------||------------------------||-----------------------||-----------------
---------------||*----------------------*||----------------------*||-----------------
4--4--6--4-----||*-------------4--------*||-------------4-----4--*||--2--2--4/6------
------------6--||---2--2---/6-----6--4---||--2--2---/6-----6------||-----------------

e e e Q e e e e e e e e e e e e e Q e e e e
---------|----------------------|----------------------------|-----------------------
4--6--4--|-------------4-----4--|-------------------4-----4--|-------------4---------
---------|--2--2---/6-----6-----|--2--2--2--2---/6-----6-----|--2--2---/6-----6------
---------|----------------------|----------------------------|-----------------------

e e e e e e e e e e e e e e e e e q q s s q e
---|--------------------------|--------------------------||--------------------------
4--|--------------------------|--6--6--6--6--6--6--6--6--||*-------------------------
---|--4--4--4--4--4--4--4--4--|--4--4--4--4--4--4--4--4--||*--------------2--2-------
---|--------------------------|--------------------------||---2--2--2--2-------------

2x e e H
-||-----r--r--||---------------------------------------------------------------------
*||-----e--e--||---------------------------------------------------------------------
*||-----s--s--||---------------------------------------------------------------------
-||--2--t--t--||---------------------------------------------------------------------

**Tabbed by Kathy Falcone
Awesome Sound - Ween Guitar tabs (www.vaxxine.com/mtbhl/ween.htm)