FRANK - words and music by Ween
**From the Album "The Pod"

Frank - by Ween

This song is totally awesome. There?s no guitar during the verses;
only a bass part, which can be played as follows on a guitar. It
repeats throughout the whole song.

e--------------------------------------------------------------------
B--------------------------------------------------------------------
G--------------------------------------------------------------------
D--------------------------------------------------------------------
A----3---1---0-------3---1---0-------3---1---0-------3---------------
E--1---1---1---1---1---1---1---1---1---1---1---1---1-----------------

This is the guitar part, which also repeats during every
chorus throughout the whole song.

e--------------------------------------------------------------------
B--------------------------------------------------------------------
G--------------------------------------------------------------------
D----------5-3-5-3-----------5-3-5-3---------5-3-5-3---5^(7)7-7-7^5--
A--------3-5-3-5-3---------3-5-3-5-3-------3-5-3-5-3-----------------
E--1-3/5-------------1-3/5-----------1-3/5---------------------------

Lyrics:

Frank, you give me a pork roll egg and cheese
If you please with some gravy and fries
Sank into a greasy mango weedge
Gener sneezed and it blew my mind

(Chorus riff x2)

Time, it?s in the hand of God
Chewing turkey or some cod if you please
Frank, you give me a pork roll egg and cheese
If you please with some gravy and fries

(Chorus riff x4)

(Solo. This is just in the key of F, with massive delay.)

(Chorus riff x3)

(Solo 2. Same as before.)

(Chorus riff till you want to stop.)

***Bass Tab***by Geoff
Frank

I've seen this tabbed half a step lower but to play along with the Cd it's like this:

w 3x e e e e e e e e 7x w e e e e e e e e e e e e e e e
G---||----||--r--||-||--r----------------||-r-||--r---------------|-r----------------
D---||-4:-||*-e-*||-||*-e---------------*||-e-||*-e---------------|-e----------------
A---||-4:-||*-s-*||-||*-s---4---2---2---*||-s-||*-s---4---2---2---|-s---4---2---2----
E---||----||--t--||-||--t-2---2---2---2--||-t-||--t-2---2---2---2-|-t-2---2---2------
Intro Verse 1 Chorus

e e e e e e e e e w 2x e e e e e e e e 6x H q e e e e e e e e
G-----|-r---------------|-r--||-||--r----------------||-r----||--r---------------|---
D-----|-e---------------|-e-*||-||*-e---------------*||-e-4--||*-e---------------|---
A-----|-s---4---2---2---|-s-*||-||*-s---4---2---2---*||-s--^-||*-s---4---2---2---|---
E---2-|-t-2---2---2---2-|-t--||-||--t-2---2---2---2--||-t----||--t-2---2---2---2-|---
Verse 2 Chorus

e e e e e e e e e e e e e e e e w 3x e e e e e e e e 3x H e e
G---r---------------|-r---------------|-r--||-||--r----------------||-r------||------
D---e---------------|-e---------------|-e-*||-||*-e---------------*||-e------||*-----
A---s---4---2---2---|-s---4---2---2---|-s-*||-||*-s---4---2---2---*||-s-5-5^-||*-----
E---t-2---2---2---2-|-t-2---2---2---2-|-t--||-||--t-2---2---2---2--||-t------||------

e e e e e e e e 3x w e e e e e e e e 22xe e e e e e e e e e e e e e e
G---r----------------||-r-||--r----------------||-r---------------|-r----------------
D---e---------------*||-e-||*-e---------------*||-e---------------|-e----------------
A---s---4---2---2---*||-s-||*-s---4---2---2---*||-s---4---2---1/2-|-s---4---2---2----
E---t-2---2---2---2--||-t-||--t-2---2---2---2--||-t-2---2---2-----|-t-2---2---2------
Outro

e e e e e e e e e 6x
G-----||--r-----r-----r----||--------------------------------------------------------
D-----||*-e-----e-----e---*||--------------------------------------------------------
A-----||*-s-----s-----s---*||--------------------------------------------------------
E---2-||--t-2-2-t-2-2-t-2--||--------------------------------------------------------

**Tabbed out by Jordie
jjjordie@collegeclub.com
http://home.collegeclub.com/jjjordie
Awesome Sound - Ween Guitar tabs (www.vaxxine.com/mtbhl/ween.htm)