DR. ROCK - words and music by Ween
**from the album "The Pod"

I figured this out after watching a live video and listening to some live
shows, so it may not sound exactly live the version on the Pod, but it's
close. Gener actually sent in the lyrics so they're correct. Props dude.
Correction make by Brandeaux

Part I (palm mute the B5 parts and emphasize the B chord)
E G A B5 ---------------------------- A B B5 ------------ E G A
e |=================================================================|
B |=========================================4=======================|
G |=========================================4=======================|
D |=======4=4=4=4=4=4=4=4=4=4=4=4=4=4=4=4===4=4=4=4=4=4=4=4=4=======|
A |=2===0=2=2=2=2=2=2=2=2=2=2=2=2=2=2=2=2=0=2=2=2=2=2=2=2=2=2=2===0=|
E |=0=3=======================================================0=3===|

Part II Part III
G E B
e |=3====0==|=======================|
B |=0====0==|==4=2=4=2=4=2=4=2=4=4==|
G |=0====1==|==4=2=4=2=4=2=4=2=4=4==|
D |=0====2==|==4=2=4=2=4=2=4=2=4=4==|
A |=3====2==|==2===2===2===2===2=2==|
E |=3====0==|=======================|

Dr. Rock - by Ween

Intro (Part I)

(Part I)
try modulating and articulating all the feelings that i have for u
(Part II)
dr.rock - help me out for i need to shout it
dr.rock - quickly Derek run & get your mammy
(Part I)
there is no denying that u been supplying in a slathering ball of flesh
(Part II)
dr.rock - the light of death is gonna shine again
dr.rock - and I?ll let you in the notes...

don?t conceal your tragic flaw
give the dr.rock a call
dr.rock - come quickly to see the scene
dr.rock - got everything that u need
you're the apple of my eye
but with some aid i feel you'll die
dr.rock - save the soul from a bottomless pit
dr.rock - see what u can make of it

(Part III)
you like to fly ahhhhhhhhhhh ahhhhhhhhhhhhhhh
ahhhhhhhhhhhhhhhhhhhhhhhhhhhhhhhhhhhhhhhhhhhh

u like the suffocating on small crustation
as u hammered your way to the truth
dr.rock - was examined by an indian eye
dr.rock - another lie that you?re going to die
try modulating and articulating all the feelings that i have for u
dr.rock - help me out for i need to shout it
dr.rock - quick derek run get your mammy

ahhhhhhhhhhhhhhhhhhhhhhhhhhhhhhhhhhhhhhhhhhhh

***Bass Tab***by Geoff

Dr. Rock
The bass in this is surprisingly hard to pick out. The bass drum of the drum machine
is dominant over the bass guitar most of the time, so it's easy to get who's playing
what mixed up. I'm pretty sure this is right.

e e e e e e e e 4x e e e e e e e e e
||------||----------------------------||--||---------------------------|--------
||--4:--||*--------------------------*||--||*--------------------------|--------
||--4:--||*--2--2--2--2--2--2--2--2--*||--||*--2--2--2--2--2--2--2--2--|--2-----
||------||----------------------------||--||---------------------------|--------
Intro Verse 1

e e e e e e e e e e e e e e e e e e e e e e e
------------------|-----------------------------|--------------------------|----
------------------|-----------------------------|--------------------------|----
2--2--2--2--2--2--|--2--2--2--2--2--2--2--2--2--|--2--2--2--2--2--2--2--2--|----
------------------|-----------------------------|--------------------------|----

e e e e e e e e e e e e e e e e e e e e e e e e
------------------------|--------------------------|----------------------------
------------------------|--------------------------|----------------------------
------------------------|--------------------------|----------------------------
3--3--3--3--3--3--3--3--|--3--3--3--3--3--3--3--3--|--0--0--0--0--0--0--0--0----

e e e e e e e e 2x e e e e e e e e 4x
|---------------------------||--||----------------------------||--||------------
|--------------------------*||--||*--------------------------*||--||*-----------
|--------------------------*||--||*--2--2--2--2--2--2--2--2--*||--||*-----------
|--0--0--0--0--0--0--0--0---||--||----------------------------||--||------------
Intro

e e e e e e e e e e e e e e e e e e e e e e e e
------------------------|-----------------------|-------------------------------
------------------------|-----------------------|-------------------------------
2--2--2--2--2--2--2--2--|--2--2--2--2--2--2--2--|--2--2--2--2--2--2--2--2--2----
------------------------|-----------------------|-------------------------------
Verse 2

e e e e e e e e e e e e e e e e e e e e e e e
|--------------------------|--------------------------|-------------------------
|--------------------------|--------------------------|-------------------------
|--2--2--2--2--2--2--2--2--|--------------------------|-------------------------
|--------------------------|--3--3--3--3--3--3--3--3--|--3--3--3--3--3--3--3----

e e e e e e e e e e e e e e e e e 2x
---|--------------------------|---------------------------||--||----------------
---|--------------------------|--------------------------*||--||*---------------
---|--------------------------|--------------------------*||--||*---------------
3--|--0--0--0--0--0--0--0--0--|--0--0--0--0--0--0--0--0---||--||----------------

e e e e e e e e 7x e e e e e e e e e e
-------------------------||----------------------------------------||-----------
------------------------*||----------------------------------------||*----------
------------------------*||----------------------------------------||*----------
7--5--5--7--5--5--7--5---||/12--12--12--12/14--14--14--14--14--14--||-----------
First Chorusy Bit

e e e e e e e e e e e e e e e e e e e e e e e e
------------------------|-----------------------|-------------------------------
------------------------|-----------------------|-------------------------------
2--2--2--2--2--2--2--2--|--2--2--2--2--2--2--2--|--2--2--2--2--2--2--2--2--2----
------------------------|-----------------------|-------------------------------
Verse 3

e e e e e e e e e e e e e e e e e e e e e e e
|--------------------------|--------------------------|-------------------------
|--------------------------|--------------------------|-------------------------
|--2--2--2--2--2--2--2--2--|--------------------------|-------------------------
|--------------------------|--3--3--3--3--3--3--3--3--|--3--3--3--3--3--3--3----

e e e e e e e e e e e e e e e e e 2x
---|--------------------------|---------------------------||--------------------
---|--------------------------|--------------------------*||--------------------
---|--------------------------|--------------------------*||--------------------
3--|--0--0--0--0--0--0--0--0--|--0--0--0--0--0--0--0--0---||--------------------

e e e e e e e e 8x e e e e e e e e 2x e
||----------------------------||--||----------------------------||--||----------
||*--------------------------*||--||*--------------------------*||--||*---------
||*--2--2--2--2--2--2--2--2--*||--||*--------------------------*||--||*---------
||----------------------------||--||---3--3--3--3--3--3--3--3---||--||---0------
Second Chorusy Bit

e e e e e e e 2x e e e e e e e e 4x e e e e
----------------------||--||----------------------------||--||------------------
---------------------*||--||*--------------------------*||--||*-----------------
---------------------*||--||*--2--2--2--2--2--2--2--2--*||--||*-----------------
0--0--0--0--0--0--0---||--||----------------------------||--||---3--3--3--3-----

e e e e 2x e e e e e e e e w w e e e e e e
-------------||--------------------------|--r--|--r--||-------------------------
------------*||--------------------------|--e--|--e--||*------------------------
------------*||--------------------------|--s--|--s--||*--2--2--2--2--2--2------
3--3--3--3---||--0--0--0--0--0--0--0--0--|--t--|--t--||-------------------------
Solo

e e 4x e e e e e e e e 2x e e e e e e e e w
-------||--||----------------------------||--------------------------|--r-------
------*||--||*--------------------------*||--------------------------|--e-------
2--2--*||--||*--------------------------*||--------------------------|--s-------
-------||--||---3--3--3--3--3--3--3--3---||--0--0--0--0--0--0--0--0--|--t-------

e e e e e e e e 4x e e e e e e e e 2x
||----------------------------||--||----------------------------||--------------
||*--------------------------*||--||*--------------------------*||--------------
||*--2--2--2--2--2--2--2--2--*||--||*--------------------------*||--------------
||----------------------------||--||---3--3--3--3--3--3--3--3---||--------------

e e e e e e e e w e e e e e e e e 4x e e e
------------------------|--r--||----------------------------||--||--------------
------------------------|--e--||*--------------------------*||--||*-------------
------------------------|--s--||*--2--2--2--2--2--2--2--2--*||--||*-------------
0--0--0--0--0--0--0--0--|--t--||----------------------------||--||---3--3--3----
Fade out begins

e e e e e 2x e e e e e e e e
----------------||--------------------------||----------------------------------
---------------*||--------------------------||----------------------------------
---------------*||--------------------------||----------------------------------
3--3--3--3--3---||--0--0--0--0--0--0--0--0--||----------------------------------

**Tabbed by Todd with corrections by brandeaux, lyrics courtesty of Gene Ween
Awesome Sound - Ween Guitar tabs (www.vaxxine.com/mtbhl/ween.htm)