STRAP ON THAT JAMMY PAC - words and music by Ween
**From the Album "The Pod"

Another classic from The Pod. Tremolo-strum every chord really fast there?s
no real time signature. The whole thing is played pretty freely. The final
A7 chord is played as one slow downstroke followed by one slow upstroke. The
lyrics are a best guess and probably WAY off.

Strap On That Jammy Pac - by Ween

A7 A D E7

e---3-------0--------3--------0---
B---2-------2--------2--------0---
G---2-------2--------3--------1---
D---2-------2--------0--------0---
A---0-------0--------0--------2---
E---0-------0-----------------0---

(A7)
Str(A)ap on that there jammy pac
Get a grip on your soul
Clip on that there jammity pac
And I?ll tr(E7)y to close the door
She gonna l(A)eave me in the morning
And I(D) can?t take no mo?
So str(A)ap on that there j(E7)ammy pac
And get up off my fl(A)oor

Strap on that there jammy pac
And try to double dye my way
Dry off your fish piggita pack (???)
And hip it to the game you play
She don?t live for a jammy
With a girl that I call Tammy
So strap on that there jammy pac
It?s time for you to play

Strap on that there jammy pac
If hypnotize won?t do
Stings you like a heart attack
Van Winkle say fuck you
Never made me no supper
Quite like she needed to
So strap on that there jammy pac
It?s time to pay your d(A7)ue

***Bass Tab***by Geoff

Strapon that Jammy Pac
There's not too much timing here. Play along however you see fit.

w w w 2x w w w
||--r--r--||----------------||--||---------------|--------------|---------------
||--e--e--||*--------------*||--||*--------------|--------------|---------------
||--s--s--||*--------------*||--||*--------------|--------------|---------------
||--t--t--||---5~~~~~~~~~---||--||---5~~~~~~~~~--|--5~~~~~~~~~--|--5~~~~~~------
Intro Verse 1

w w w h h
-----|--------------|----------------|---------------|--------------------------
-----|--------------|----------------|---------------|--------------------------
-----|--------------|----------------|---------------|--------------------------
~~~--|--0~~~~~~~~~--|--5~~~~~~~~~~~~/|--10~~~~~~~~~--|--5~~~~~~~~~--0~~~--------

h h q w w w
--------|-----------------|-----|--------------|--------------|-----------------
--------|-----------------|-----|--------------|--------------|-----------------
--------|-----------------|--12\|--------------|--------------|-----------------
~~~~~~--|--0~~~~~~~~~--5--|-----|--5~~~~~~~~~--|--5~~~~~~~~~--|--5~~~~~~--------
Verse 2

w w w h h
-----|--------------|----------------|---------------|--------------------------
-----|--------------|----------------|---------------|--------------------------
-----|--------------|----------------|---------------|--------------------------
~~~--|--0~~~~~~~~~--|--5~~~~~~~~~~~~/|--10~~~~~~~~~--|--5~~~~~~~~~--0~~~--------

h h w w w w
--------|-----------------|--------------|--------------|--------------|--------
--------|-----------------|--------------|--------------|--------------|--------
--------|-----------------|--------------|--------------|--------------|--------
~~~~~~--|--0~~~~~~~~~--5--|--5~~~~~~~~~--|--5~~~~~~~~~--|--5~~~~~~~~~--|--0-----
Verse 3

w w h h h
-----------|----------------|---------------|--------------------------|--------
-----------|----------------|---------------|--------------------------|--------
-----------|----------------|---------------|--------------------------|--------
~~~~~~~~~--|--5~~~~~~~~~~~~/|--10~~~~~~~~~--|--5~~~~~~~~~--0~~~~~~~~~--|--0-----

h
------------------------------|-----||----------------------------------------------
------------------------------|-----||----------------------------------------------
------------------------------|-12\-||----------------------------------------------
~~~~~~~~~--5~~~~~~~~~~~~~~~~~~|-----||----------------------------------------------

**Tabbed out by Jordie
jjjordie@collegeclub.com
http://home.collegeclub.com/jjjordie
Awesome Sound - Ween Guitar tabs (www.vaxxine.com/mtbhl/ween.htm)