THE BELVIDENE - words and music Ween
**Unreleased - White Pepper Outtake

The Belvedine - as performed by Ween

\=slide

e|-------13-14-15-14-13-14--------13-15-16-15-13------
B|----------------------------------------------------
G|----------------------------------------------------
D|---7-7--------------------5-5-----------------------
A|---5-5--------------------3-3-----------------------
E|----------------------------------------------------
play that about 4 or 5 times than play
this just befor he starts singing

e|13-14-15-14-13-14-13\17-16-15-14\15-13----
B|---------------
G|---------------

***Version 2 by The Glidge***

This is in standard tuning. You'll need a Whammy pedal or a Whammy wah
to pull it off full-on Deaner style.

INTRO RIFF:

E:--8---8-------------------6--6-------------6--6----------
B:--8---8--------8----------6--6------6------8--8--8-9-11--
G:--9---9---9-10---10-9-----7--7--7-8---8----8--8----------
D:--10--10--------------10--8--8----------8--8--8----------
A:--10--10------------------8--8-------------6--6----------
E:--8---8-------------------6--6---------------------------

E:---------3--3--------------3--3----------------3---------------
B:--9-8----3--3------3-------3--3--3-5-6-5-3-------6-5-5-(H/P)6--
G:------8--4--4--4-5--5-4----4--4------------5-4-----------------
D:---------5--5-----------5--5--5--------------------------------
A:---------5--5--------------5--5--------------------------------
E:---------3--3--------------3--3--------------------------------

E:-----3--:
B:-----3--:
G:-----4--:
D:--5--5--:
A:-----5--:
E:-----3--:

VERSE 1

G
Welcome all you to the Belvidine

D
Please be sure your ass is squeaky clean

G
Don't forget to tip the boy in red

D
Touch the feathered cap upon his head

INTRO RIFF

VERSE 2

G
We've got such lovely surprises for you

D
Flickered root that makes your dreams come true

G
An octopus that wraps around your heart

D
Little porpoise that will tear it up

INTRO RIFF

VERSE 3

G
So come 'til we shall feast and tickle pink

D
Frisky mountain with the rosy cheek

G
All you children picked the perfect time

D
To come and see us at the Belvidine

INTRO RIFF

END

VERSE RIFF: This riff is played over the verse section instead of the
block chords. You play the note and use the Whammy pedal to bend the
note in a very ill fashion.

"Welcome all you..." "Please make sure..."
E:---------------------------------------------------:
B:---------------------------------------------------:
G:--4--4--4--4------------------11--11--11--11-------:
D:---------------------------------------------------:
A:---------------------------------------------------:
E:---------------------------------------------------:

**Tabbed by Busterhuck
Awesome Sound - Ween Guitar tabs (www.vaxxine.com/mtbhl/ween.htm)