STACEY - words and music by Ween
**from the album "Live Brain Wedgie" and the reissue of "God Ween Satan"

A peek into early Ween. Beanween sent it in, thanks. Lyrics by me, what
there is of them.

Stacey

e|-------------------------------------------------|---7---/---12-----|
B|-------------------------------------------------|---9---/---14-----|
G|-------------------------------------------------|---9---/---14-----|
D|-------------------------------------------------|---9---/---14-----|
A|-------------------------------------------------|---7---/---12-----|
E|--10---12---12---10---12---12---10---12---12-----|------------------|

I know a girl named Stacey
Has a face that's kinda tastey
I like her more than Sue or Tracey
You know a girl like Stacey

(repeat verse)

Deaner!

(solo)

(repeat verse screaming)

***Version 2*** Peter Cook

E-------------------------------------------|-----------------|
B-------------------------------------------|--9-----/14------|
G-------------------------------------------|--9-----/14------|
A-------------------------------------------|--9-----/14------|
D-----7--7-------7--7-------7--7------7--7--|--7-----/12------|
E--7----------7----------7---------7--------|-----------------|

***Version 3***

STACEY - words and music by Ween
from the album "GodWeenSatan - The Oneness"
tabbed by: your pal, Weenzer

a fairly easy song here, ladies and gents. I'm surprised it wasn't here yet...here ya go.
Standard tuning.

For the solos: it's just E to A again, if you don't know the solo like i don't.

(Riff 1)
e-----------|
B-----------|
G-----------|
D----2-2----|
A--2--------|
E-----------|

(Riff 1) 8x

E
I know a girl named Stacey
A E
With a brain that's kinda spacey
A E
I like her more than Sue or Tracy
A E (Riff 1) 4x
Oh, do you know a girl named Stacey

E
I know a girl named Stacey
A E
With a brain that's kinda spacey
A E
I like her more than Sue or Tracy
A E (Riff 1) 4x
Oh, do you know a girl named Stacey

<solo>
<Riff 1> 4x
E
I know a girl named Stacey
A E
With a brain that's kinda spacey
A E
I like her more than Sue or Tracy
A E (Riff 1) 17x
Oh, do you know a girl named Stacey

***Version 3*** by your pal Weenzer

a fairly easy song here, ladies and gents. Standard tuning.

For the solos: it's just E to A again, if you don't know the solo like i don't.

(Riff 1)
e-----------|
B-----------|
G-----------|
D----2-2----|
A--2--------|
E-----------|

(Riff 1) 8x

E
I know a girl named Stacey
A E
With a brain that's kinda spacey
A E
I like her more than Sue or Tracy
A E (Riff 1) 4x
Oh, do you know a girl named Stacey

E
I know a girl named Stacey
A E
With a brain that's kinda spacey
A E
I like her more than Sue or Tracy
A E (Riff 1) 4x
Oh, do you know a girl named Stacey

<solo>
<Riff 1> 4x
E
I know a girl named Stacey
A E
With a brain that's kinda spacey
A E
I like her more than Sue or Tracy
A E (Riff 1) 17x
Oh, do you know a girl named Stacey

**tabbed by Beanween
Awesome Sound - Ween Guitar tabs (www.vaxxine.com/mtbhl/ween.htm)