SECONDS - words and music by Ween
**unreleased

This song is only half finished so if anybody has an idea how the rest of
it goes send it on in and I'd be deeply appreciative. I couldn't figure
out the lyrics, so I quit tryin'.

Seconds - by Ween

e|-7-----5-----7-----7---|
B|-7-----5-----9-----7---|
G|-8-----6-----9-----8---|
D|-9-----7-----9-----9---|
A|-9-----7-----7-----9---|
E|-7-----5-----0-----7---|

***version 2*** by matt

shes servin seconds momma
you know i'm hungry
and beggers can't be chooser now sweet hunny
i got whats comin, and lordy knows i've waited long enough
and i'm joinsin for a taste of your tasty tasty stuff

bring it on sloppy seconds
you really good ?love breaker?
you and i could make a sandwitch and other things i rekon

oh lordy lordy
you showed up lookin scrawny
why you like your self esteem in a bottle like your 40
you servin seconds momma gots to quench my thirst
should of fucked you long ago but someone else was first,

verse
B-A-E

chorus
G > A > A# > B 3x
B> A# >A >Gb last time

vocal solo

part A
e|------------------------------------------------------------------------------
B|------------------------------------------------------------------------------
G|------------------------------------------------------------------------------
D|---------7---------------7--7-----9--------------7-----------7----------------
A|--9------------9----------------------------9----------9--------------9--8--7-
E|------------------------------------------------------------------------------
part B<BR>
e|------------------------------------------------------------------------------
B|------------------------------------------------------------------------------
G|----------------------------------------------------------9--8--7-------------
D|----------7--------7--7----9-------------7--------------------------9---------
A|-----9--------9----------------------9--------9-------------------------------
E|------------------------------------------------------------------------------

part C

e|--------------------------
B|--------------------------
G|--------------------------
D|--------------------------
A|--------------------------
E|----5---7-7------5----7-7- ect.<BR>

***Version 3*** lyrics by Ian

you servin seconds mama
and you know i'm hungry
and beggars can't be choosers now
sweet honey sweet honey
i got what's comin
and lordy knows i've waited long enough
and i'm jonsin for a taste of your
tasty tasty stuff

bring it on sloppy seconds
you know your good like i reckoned
you and i could make a sandwich
and bite it baby i reckon

oh lordy lordy
you showed up lookin sporty
party like you're seventeen
in a body like you're forty
oh yeah
you servin seconds mama
gots to quench my thirst
should've fucked you long ago
but someone else was first

bring it on sloppy seconds
you know your good like i reckoned
you and i could make a sandwich
and bite it baby i reckon

wa ow ow ow ow wa ow ow ow etc.

***Version 4*** by SteamedHams

The chorus sounds more like this (all powerchords):

E G A B
E G A B
E G A B
G E F F#

**Tabbed by Beanween
Awesome Sound - Ween Guitar tabs (www.vaxxine.com/mtbhl/ween.htm)