LONG LEGGED SALLY WAS A NO-NECKED WHORE - words and music by Ween
**Pod Outtake/from the tape "Bilboa"

With the help of a strong wah-wah effect you should be able to
get this one going... the vocals are another story however...

Long Legged Sally Was A No-Necked Whore - by Ween

This is basically the whole song (a I-IV progression)->

F
Long legged Sally was a no-necked whore <3x>

The next chord is B flat, then back to F, where this
riff is played:

(the run-down riff)
E--------------------------------------------------------
B--------------------------------------------------------
G--------------------------------------------------------
D--------------------------------------------------------
A--------------------------------------------------------
E--13--12--11--10--9--8--7--6------------------------

This whole section is played twice, but the third time
the riff run-down isn't played right away. F is hit, the
guitar returns to B flat, THEN the F/riff passage is played.

The next section features a lil lead (
E--------------------------------------------------------
B--------------------------------------------------------
G--------------------------------------------------------
D--13-----------13--------------------------------------
A-------11----------11----------------------------------
E-----------13----------13------------------------------ etc.

E--------------------------------------------------------
B--------------------------------------------------------
G--------------------------------------------------------
D-------------------------6------------------------------
A--8--6--8--6--8--6--8-----------------------------------
E--------------------------------------------------------

This time instead of hitting the B flat, go straight to the F run...

Then (this isn't written out well, but follow along with the song)
F / F run / B flat / F run / back to chord progression
B flat / F run / B flat
THIS TIME it moves on up to a regular B chord followed
by a C.

Hit the F run 10 times, then back to regular progression.
Lead features lots of bends (F pentatonic minor)

**Tabbed by Josh/Sheen <sheen@rtcol.com>
Awesome Sound - Ween Guitar tabs (www.vaxxine.com/mtbhl/ween.htm)