ALL THATS GOLD WILL TURN TO BLACK - words and music by Ween
**From the Album 'Craters of the Sac' If you have it...

All Thats Gold Will Turn To Black - by Ween

Intro:
e|--2--------|
B|--3--------|
G|--2--------|
D|--0--------|
A|-----------|
E|-----------|

Verse:
e|--2--------|-----------|
B|--3--------|--1--------|
G|--2--------|--0--------|
D|--0--------|--2--------|
A|-----------|--3--------|
E|-----------|-----------|

Melody: (?)
e|--10-10--13--10--15--13--10--|--------------------------|
B|-----------------------------|--13--15--16--15--13--15--|
G|-----------------------------|--------------------------|
D|-----------------------------|--------------------------|
A|-----------------------------|--------------------------|
E|-----------------------------|--------------------------|

Interlude:
e|--------------------|
B|--------------------|
G|--------------------|
D|--------------------|
A|--8--7--5--3--5--7--|
E|--------------------|

**Tabbed by Beanween
Awesome Sound - Ween Guitar tabs (www.vaxxine.com/mtbhl/ween.htm)