BUCKINGHAM GREEN - words and music by Ween
**from the album "The Mollusk"

Buckingham Green - by Ween

The chords are Am, F, C, Dm, Em, and E (and E7).

Am F C Cmaj7 Dm Em E E7 A(no 3rd)
E -0- -1- -0- -0- -1- -0- -0- -0- -0-
B -1- -1- -1- -0- -3- -0- -0- -3- -0-
G -2- -2- -0- -0- -2- -0- -1- -1- -2-
D -2- -3- -2- -2- -0- -2- -2- -2- -2-
A -0- -3- -3- -3- -0- -2- -2- -2- -0-
E -0- -1- -x- -x- -x- -0- -0- -0- -0-

A (Am) child without an eye (F)
(C) made her mother cry
(Dm) why ask why
she (Em) kept her child clean
(E) on Buckingham Green

Cmaj7 A(no 3rd)
1 2 3 4 1 2 3 4 1 2 3 4 1 2 3 4
E ---------------------------------0--------------
B ------3--0--------3--0-----------0--------------
G ------------------------------2-----------------
D ---2-----------------------2--------------------
A 3--------------3--------0-----------------------
E ------------------------------------------------

(end of verse fill:)

The (Am) children saw the eye (F)
as a (C) sign from God
(Dm) descending from the sky
it was (Em) alright to dream
(E) of Buckingham Green

instrumental break:

("h" means hammer-on, "p" means pull-off, and a / means to slide
to that note)

0 (pickup) 1 2
Am Am Am
1 + 2 + 3 + 4 + 1 + 2 + 3 + 4 + 1 + 2 + 3 + 4 +
E ------------------7h8p7-5-----------------------------------------------
B ------------------------------------------8---/-12----10----8-----10----
G ------------------------------------------------------------------------
D ------------------------------------------------------------------------
A ------------------------------------------------------------------------
E ------------------------------------------------------------------------

3 4 5
F F C
1 + 2 + 3 + 4 + 1 + 2 + 3 + 4 + 1 + 2 + 3 + 4 +
E ------------------------------------------------------------------------
B 6-----------------6--8-/10----8-----6-----8-----5-----------------------
G ------------------------------------------------------------------5--7-/
D ------------------------------------------------------------------------
A ------------------------------------------------------------------------
E ------------------------------------------------------------------------

6 7 8
C Dm Dm
1 + 2 + 3 + 4 + 1 + 2 + 3 + 4 + 1 + 2 + 3 + 4 +
E ------------------------------------------------------------------------
B ------------------------------------------------------------------------
G 9-----7-----5-----9-----7-----------------7--9-/10----9-----7---/-10----
D ------------------------------------------------------------------------
A ------------------------------------------------------------------------
E ------------------------------------------------------------------------

9 10 11
Em Em E
1 + 2 + 3 + 4 + 1 + 2 + 3 + 4 + 1 + 2 + 3 + 4 +
E ------------------------------------------------------------------------
B ------------------------8-----------------8-----9-----------------------
G 9-----------------9--10----10-9-----10----------------------------------
D ------------------------------------------------------------------------
A ------------------------------------------------------------------------
E ------------------------------------------------------------------------

12 13 14
E Cmaj7 (end verse fill)
1 + 2 + 3 + 4 + 1 + 2 + 3 + 4 + 1 + 2 + 3 + 4 +
E ------------------7h8p7-5-----------------------------------------------
B ------------------------------------------8---/-12----10----8-----10----
G ------------------------------------------------------------------------
D ------------------------------------------------------------------------
A ------------------------------------------------------------------------
E ------------------------------------------------------------------------

15 16
A(no 3rd)
1 + 2 + 3 + 4 + 1 + 2 + 3 + 4 +
E 8-----------------------------------------------
B ------------------------------------------------
G ------------------------------------------------
D ------------------------------------------------
A ------------------------------------------------
E ------------------------------------------------

(repeat that bit--there's a second lead playing harmony too, but I don't
know what the harmony is yet :-)

(solo chords:)

1 2 3 4 1 2 3 4 1 2 3 4 1 2 3 4 1 2 3 4 1 2 3 4 1 2 3 4 1 2 3 4
Am Am Am Am Am C Dm Dm Dm Dm Dm (Em)

1 2 3 4 1 2 3 4 1 2 3 4 1 2 3 4 1 2 3 4 1 2 3 4 1 2 3 4 1 2 3 4
F F G Am Am Am E E E E E E

**first part of solo** tabbed by Tabbed by GABOU !!! (gabou@gabouprod.com)

E -7h8p7-5-3-3s7-5-3-3h5p3-1-1-3s5-3-1-1h3p1-0--------------------------------------
A ----------------------------------------------1-3-3s5-3-1-1s5-3-3-5-5b-5-3-5b-5---
D ----------------------------------------------------------------------------------
G ----------------------------------------------------------------------------------
B ----------------------------------------------------------------------------------
E ----------------------------------------------------------------------------------

E ----------------------7h8p7-5-3-3s7-5-3-7-5--
A -5-6-8-6-5-6-8-9~~ --------------------------
D --------------------------------------------- x2
G ---------------------------------------------
B ---------------------------------------------
E ---------------------------------------------

**second part of solo** tabbed by THe Glidge

SOLO CHORDS

Amin.----Cmaj.----Dmaj.----Emaj.(played as a passing chord)

Fmaj.----F7----E7---- and repeat; pick up the timing off the CD

EL SOLO GRANDE

Amin.

E:---------------------------------------------
B:------------------20-------------------------
G:--17------17--19------19(quick bend and release)
D:------19-------------------------------------
A:---------------------------------------------
E:---------------------------------------------

Amin.

E:---------------------------------------------
B:---------------------------------------------
G:--17-----17--19--19(partial bend)--17--19----
D:-----19--------------------------------------
A:---------------------------------------------
E:---------------------------------------------

Cmaj.-Dmaj.

E:--------------20--19--17---------------------
B:--------------------------20--19--17---------
G:--17--19--17--------------------------19(freak
D:--------------------------------------out on this
A:-------------------------------------note w/bending
E:-----------------------------------------etc.)

Fmaj. F7

E:----------------------------------------------
B:----------------------------------------------
G:--17----------17(h/p)19--17----------17--19(full
D:------19---------------------19-------------bend)
A:----------20---------------------20-----------
E:----------------------------------------------

E7

E:----------16----------------------------------
B:------17------17------------------------------
G:--17--------------17--16--17--19--19--17--16--
D:----------------------------------------------
A:----------------------------------------------
E:----------------------------------------------

(Am) Summon the queen (F)
spoke the (C) child of eye
it's (Dm) time to fly
turning (Em) fire to steam
(E) on Buckingham Green

**tabbed by Jeff Coleman (jcoleman@handofgod.com)
Awesome Sound - Ween Guitar tabs (www.vaxxine.com/mtbhl/ween.htm)