(Best Time) At Your Party by Gene Ween
As performed at the Off Broadway Theatre in Hopewell, NJ on 18 January 2007.

Here is a basic tab of the party.
Just work out the strumming.

Verse............................Chorus

7---7---5---7----------0---3---0---0---0---0
8---7---5---8----------1---0---1---0---1---0
9---7---5---9----------0---0---2---1---2---1
9---0---7---9----------2---0---2---2---2---2
7---0---7---7----------3---2---0---2---0---2
0---0---5---0----------0---3---0---0---0---0

Verse: F#m C#m Bm F#m

Chorus: D A Bm F#m

Verse 1:
There were beverages laid out for the party.
There were candy and spices and tri-colored pasta.
The meat carved was drunk on succulent juices.
Served on platters made of the purest gold.

Verse 2:

I was calm when we arrived at the party.
I spoke with fervor, embracing the evening.
My wife leaned over and whispered "I love you."
I held her close and we danced.

Chorus:
We had the best time at your party.
My wife and I thank you very much.
We had the best time at your party.
My wife and I thank you very much.

Verse 3:

Cream puffs and bourbon and the music was louder.
My wife was competing in a game of chance.
The party raged and the guests were screaming.
I could've danced all night.

Chorus

Verse 4:
Later on, when we were under the covers
I closed my eyes and I drifted to sleep.
I dreamt about me maybe throwing a party
and just how great that would be.

Chorus

It has also been played in E minor but I think F#minor sounds better.

______________________________________________________________________________________

VERSION 2.....

At your Party - Words and music by Ween
Tabbed from Gene Ween Solo show @ Falls Church, VA on 03/29/07

Verse :

     Em    D6   Am   Em

e:---7-----7----5----7----
b:---8-----7----5----8----
G:---9-----7----5----9----
D:---9-----7----7----9----
A:---7-----x----7----7----
E:---7-----x----5----7----

Chorus :

     C     G    Am   Em   Am   Em

e:---0-----3----0----0----0----0----
b:---1-----0----1----0----1----0----
G:---0-----0----2----0----2----0----
D:---2-----0----2----2----2----2----
A:---3-----2----0----2----0----2----
E:---x-----3----x----7----x----0----

Tabbed by GABOU !!! (gabou@gabouprod.com)