SWEETHEART IN THE SUMMER
Ween
La Cucaracha

Intro:
D|-5-7-/9-7-5---7-----7/9-7\5--- X2
A|------------7---------------7- G

                            Em  D                     G     Gmaj7
She's a sweetheart in the summer, summertime is here again.
                            Cm  D                       Riff
She's a sweetheart in the summer, and I hope it never ends.

G                           Gmaj7                               Cm   Cm
Winter days that never end, frozen nights with you under the covers.
D                               D                                 Riff
But the lonely time we spend, is worth it in the end when summer comes.
G                              Gmaj7                           Cm   Cm
Makin' love and holdin' hands, rollin' in the sun and sand together.
D                               D                     G
Every year when summer comes around, we fall in love again.

                            Em  D                     G    Gmaj7
She's a sweetheart in the summer, summertime is here again.
                            Cm  D                     Riff x2
She's a sweetheart in the summer, and I hope it never ends.

G                           Gmaj7                               Cm   Cm
I'm gonna take you far away, pack the car let's get away for a while.
D                               D                                 Riff
We'll find a motel room and call it home for just a couple days.
G                           Gmaj7                               Cm   Cm
Love to see your smilin' face, nothing else is sweeter in the world.
           D                         D                         G
'Cos when everything is said and done you will always be my girl.

                            Em  D                     G    Gmaj7
She's a sweetheart in the summer, summertime is here again.
                            Cm  D                     Riff x2
She's a sweetheart in the summer, and I hope it never ends.

SOLO
Em D G
B|--------------------------------------7-------7-------8-7-----8-7-------------------
G|-----7--------7-----7-9-----------9-----9-7-----9-7-------9-7-----9-7---------------
D|-7h9------7h9---7h9-----------9-------------9-------9-----------------9-7-5---------
A|--------------------------7-------------------------------------------------777-555-

Cm D
B|-----------------3/5\3/5\3/5\3-
D|-------------------------------
A|---------/7--5-----------------
E|-3-/8--------------------------

Riff x2

Riff
In the summertime with you.

Gmaj7

tab by Geoff