PAPA ZIT - words and music by Ween
from the album "God wEEn Satan - The Oneness"

transcribed by Matt Anderson

This is how I play it, I'm sure its not perfect:

Papa Zit - By Ween

for the first two verses:
(There is a variation done within the second verse, but this is basically it)

e[---13--0--10--0---------------------------------------------------------]
B[---------------------13--0--10--0---------------------------------------]
G[----------------------------------------12--10--12--12b13r12--10--------]
D[--------------------------------------------------------------------12--] X4
A[------------------------------------------------------------------------]
E[------------------------------------------------------------------------]

the bass plays:
G-------------------------------
D--10h12--12--12--12-12- etc
A--------------------------------
E--------------------------------

then during "This is the shit":

e[------------------------------------]
B[------------------------------------]
G[-------------------13b15---13b14----](release slowely)
D[---12----15-------------------------]

(Bass: D, F, G, G#)

Break:

e[---10-----------]
B[-------10-------]
G[------------11--]


G[---7-s-10--X--10--X-X--10--10--10---12-s-13--]
D[---7-s-10--X--10--X-X--10--10--10---12-s-13--]
A[ ---5-s--8---X--8----X-X---8----8----8---12-s-13--]
E[-------------------------------------------------------------]

G[----7--7--X--10--X-X--10--X-X--12s13---------]
D[----7--7--X--10--X-X--10--X-X--12s13---------]
A[----5--5--X---8---X-X---8---X-X--10s11---------] X2
E[----------------------------------------------------------]

the bass plays:
G------------------------------------------------------------
D--10h12--12--12--12--12--12--12--12--12--12--12--12-----10--
A------------------------------------------------------------
E------------------------------------------------------------
then:

G[ ---7----10----12---13-------------------------------]
D[ ---7----10----12---13-------------------------------]
A[----5-----8-----10---11------------------------------]
E[-----------------------------------------------------]

The third verse goes something like this:

B[-----7---7-----------6-------6------]
G[-----7------7------------7------7--5]
D[-----7----------7-------------------] X4
A[-----5------------------------------]
E[------------------------------------]

Then "this is the shit":

G[---7----10----12---13------]
D[---7----10----12---13------]
A[----5-----8-----10---11----]
E[---------------------------]

On the last verse he just goes off on a D minor pentatonic scale or something

then the "This is the shit" part 2X

**Tabbed by Matt Anderson
Awesome Sound - Ween Guitar tabs (www.vaxxine.com/mtbhl/ween.htm)