UP ON TH' HILL - words and music by Ween
from the album "God Ween Satan - The Oneness"

Lyrics:

Up on the hill, down by the river
By the ocean, across the field
By the word of the Boognish
I said "Lordy lordy lord I'm coming home"

When I was younger, my momma told me
She said "Gener, I wants to smell it"
And then she smelled it, and it was smelly
And she said "Lordy lordy lord I'm coming home"

In a dream, said he was coming
Boognish was rising up from the mist
He held the scepter of wealth and power
And said "By God I've come to take you home"

 

The lyrics are repeated twice, first a-capella (ahem), then backed up by the
following (alternating) guitar riffs:

1 2 3 4 1 2 3 4 1 2 3 4 1 2 3 4 1 2 3 4 1 2 3 4 1 2 3 4 1 2 3 4
E|-----------------------------------------------------------------|
B|-----------------------------------------------------------------|
G|-4-4---4-2-------4-4---4-2-------4-4---4-2-------4-4---4-2---2---|
D|-2-2---2-0-------2-2---2-0-------2-2---2-0-------2-2---2-0---0---|
A|-----------2-0-------------2-0-------------2-0-------------------|
E|---------------3---------------3---------------3-----------------|

E|-----------------------------------------------------------------|
B|-----------------------------------------------------------------|
G|-4-4---4-2-------4-4---4-2-------4-4---4-2-------4---2---4-------|
D|-2-2---2-0-------2-2---2-0-------2-2---2-0-------2---0---2-------|
A|-----------2-0-------------2-0-------------2-0-------------------|
E|---------------3---------------3---------------3-----------------|

That's all there's to it!

Tabbed by Tom Nuydens (delphi3d@gamedeveloper.org)
Awesome Sound - Ween Guitar tabs (www.vaxxine.com/mtbhl/ween.htm)