I GOTS A WEASAL - words and music by Ween
**from the album "God Ween Satan - The Oneness"

I Gots A Weasel - by Ween

Verse riff
E---------------------------------
B---------------------------------
G-----------------3--6p3-0-0------
D-----------2--5------------------
A-----1--4------------------------
E--3------------------------------

Chorus Riff
E-------------------------------------------------------
B-------------------------------------------------------
G--------3--0--------------------------------2(bend-----
D-----2--------------3--0--------2--0-----1----slightly)
A--3--------------2-----------1--------2----------------
E--------------3-----------2----------------------------

In the last verse there is a lead fill but, as many GodWeenSatan lead
riffs are, it is quite fast, abstract, and well, I just can't hear where
he's playing most of the notes. I do believe it starts like this:

E--1h3p1-------
B-------1h3p1--
G--------------
But that's the best I could do with it.

End of song
E------------------------3-3--
B-----------------------------
G-----------------3--6p3-0-0--
D-----------2--5--------------
A-----1--4--------------------
E--3--------------------------

I got a weasel it's a teasel mah pleazel mah pleazel got a weasel.

**Tabbed by Peter Cook
Awesome Sound - Ween Guitar tabs (www.vaxxine.com/mtbhl/ween.htm)