DON'T GET 2 CLOSE (2 MY FANTASY) - words and music by Ween
** from the album "Pure Guava"

Kids, there's two versions of this song here. The first one was posted by
Old Squirrl on the Ween newsgroup. The second version was sent to me by Big
Jim. Thanks mang.

Don't Get 2 Close (2 My Fantasy) - by Ween

E#/B

E#/B G
Don't quiver little boy your daddy's with you now
E#/B G
It won't be long anyhow
E#/B G
F D
Its just around the corner, the destiny that I embrace with you. boo hoo hoo
Am (hit a G in passing) F
Don't get too close to my fantasy
Am (G) F
Don't be afraid to clutch the hand of your creator
Am (G) F
D
Stare into the lion's eyes, and if you taste the candy, you'll get to the
surprise

Repeat for second verse and chorus and then
the instrumental part's like this:
Am (sounds nice if you walk down C to B on the A string) G
E E#/E G/E
That x2 and then whistling solo over the E#/B G verse pattern

E#/B.. May or may not be the real name of this chord:
E-X
A-3
D-3
G-2
B-0
E-X
Sounds nice if you let the high open E in there every once in a while

The E to E#/E to G/E part just involves making an open E and moving it up
the neck... again, these chords are probably technically called something
else G/E

***********************************************************************
Version 2:

verse chorus Bridge(solo?)
E |--0---0---------5--3--1-------------5--7--8-7---3-5-6-5---1-3-4-3-
B |--0---0---------5--3--1-------------5--7--8-7---3-5-6-5---1-3-4-3-
G |--2---0---------6--4--2-------------6--8--9-8---4-6-7-6---2-4-5-4-
D |--3---2---------7--5--3-------------7--9-10-9---5-7-8-7---3-5-6-5-
A |--3---3---------7--5--3-------------7--9-10-9---5-7-8-7---3-5-6-5-
E |------3---------5--3--1-------------5--7--8-7---3-5-6-5---1-3-4-3-

***********************************************************************
Version 3:

Main Riff:
e|-----------------1--|
B|-----------------3--|
G|--2--------------2--|
D|--3-X5----2---------|
A|--3-------3-X5------|
E|----------3---------|


"Don't get to close.." (listen to song to play right) Riff:
e|---------------------------1--|
B|---------------------------3--|
G|-6---4---2----2---4---6----2--|
D|-7---5---3----3---5---7-------|
A|-7---5---3----3---5---7-------|
E|-5---3---1----1---3---5-------|


Bridge Riff:
e|----------------------------------1---|
B|----------------------------------3---|
G|-66--8-9-8---44--676---22--454----2---|
D|-77--9-109---55--787---33--565--------|
A|-77--9-109---55--787---33--565--------|
E|-55--7-8-7---33--565---11--343--------|

***Bass Tab** by Guff

w 3x w w E E q e e e Q q e s
----||---r---||-----|------|------------7--10--7--|----/14--12--9-------
4:--||*--e--*||-----|--10--|-----7--10------------|--10-----------------
4:--||*--s--*||--8--|--10--|--8-------------------|---------------------
----||---t---||-----|------|----------------------|---------------------
Intro First Verse

s s s E E q q e Q q e s s e E E q s
12--9--7--|------------7--7--|/12/14--12--9--7--9--|------------7-------
----------|-----7--10--------|---------------------|-----7--10----------
----------|--8---------------|---------------------|--8-----------------
----------|------------------|---------------------|--------------------

s e Q q e s s e Q q e s s e 2x
----7--|/12/14--12--9--7--9--||----------------------------||--||-------
10-----|---------------------||*--------------------------*||--||*------
-------|---------------------||*--10--10--10--10--10--10--*||--||*------
-------|---------------------||----------------------------||--||-------

q q q s E q q q s E 3x q q q q 2x
--------------------|-------------------||--||--------------------||----
--------------------|------------------*||--||*--12--12--12--12--*||----
12--12--12--12--10--|--8--8--8--8--10--*||--||*------------------*||----
--------------------|-------------------||--||--------------------||----
Chorus

Q Q q Q q e e e H q h q s s e Q q e
-----------|----------------|----------|-----------------|--------------
-----------|---/7--5--------|----------|-----7--5--------|--------7-----
8----------|--3-------7--5--|----------|--3--------7--5--|-----8--------
---1--1/3--|----------------|--1--1/3--|-----------------|--1-----------
2nd Verse

e e Q q e s s s s Q q e s s e Q
----7--|----/14--12--9--12--9--7--|--------------------------|----------
10-----|--10----------------------|----------------------12--|----------
-------|--------------------------|--10--10--10--10--10--10--|--10------
-------|--------------------------|--------------------------|----------

q e s s e q q q s E q q q s E 3x
--------------------||-----------------------|-------------------||-----
--------------------||*----------------------|------------------*||-----
10--10--10--10--10--||*--12--12--12--12--10--|--8--8--8--8--10--*||-----
--------------------||-----------------------|-------------------||-----
Chorus

q q q q 2x E s e s s s s e e e
||--------------------||----------------------------------------|-------
||*--12--12--12--12--*||------------------------------9--10--9--|-------
||*------------------*||--12--12--12--12--12--12--12------------|-------
||--------------------||----------------------------------------|-------
Bridge

E s e s s s s e e e E s E s E s s E
---------------------------------------|---------------------------|----
--------------------------------9------|---------------------------|----
10--10--10--10--10--10--10--12-----12--|--8--8--8--8--8--8--8--10--|----
---------------------------------------|---------------------------|----

s s s s s s s s s s s s s s s s E s e
----------------------------------------------------|-------------------
----------------------------------------------------|-------------------
7--7--7--7--8--8--8--8--10--10--10--10--8--8--8--8--|--12--12--12-------
----------------------------------------------------|-------------------

s s s s e e e E s e s s s s e e e
--------------------------|---------------------------------------------
----------------9--10--9--|----------------------------------9----------
12--12--12--12------------|--10--10--10--10--10--10--10--12-----12------
--------------------------|---------------------------------------------

e s e s e e s s s E E s E s e s e s s s
|--------------------------------|--------------------------------|-----
|--------------------------------|--------------------------------|-----
|--7--7--7--7--7--7--7--7--7--7--|--7--5--7--5--7--5--7--5--7--5--|-----
|--------------------------------|--------------------------------|-----

E E q e e e q q E s s s s s q q e e
----------7--10--7--|----/14--12--9--12--14--12--9--|---------7--10-----
---7--10------------|--10---------------------------|--7--10------------
8-------------------|-------------------------------|-------------------
--------------------|-------------------------------|-------------------
Whistling Solo

e e q q q s s s s Q q e s s s s
7------|----/14--12--14--12--14--12--|--15--14--12--14--12--9------|----
---10--|--10-------------------------|-------------------------12--|----
-------|-----------------------------|-----------------------------|----
-------|-----------------------------|-----------------------------|----

E E q s s s s s s s s s s s s s s
---------------------||-------------------------------------------------
----8----------------||*--12--12--12--12--12--12--12--12--12--12--12----
10-----10--8--10--8--||*------------------------------------------------
---------------------||-------------------------------------------------
^wrong note, but played as is

s s s s s 2x w 17x
---------------------||--||---r---||------------------------------------
12--12--12--12--12--*||--||*--e--*||------------------------------------
--------------------*||--||*--s--*||------------------------------------
---------------------||--||---t---||------------------------------------
Vocal chrous and laughter

**Tabbed by Old Squirrl & Big Jim.
Awesome Sound - Ween Guitar tabs (www.vaxxine.com/mtbhl/ween.htm)