LOVING U THRU IT ALL - words and music by Ween
*from the album "Pure Guava"

Loving U Thru It All - by Ween

This tune is a classic example of why Ween kick ass: Deaner comes up with
some chords, they talk about the lyrics for about 5 seconds, then they go
and record it. They try and do a duet and they have no idea what the other
guy is gonna sing. This song can, and should, be played for at least three
hours. 

Intro
Am (repeat over a fade-in)
e---------0-----------0-----------------------------------------------
B---------1-----------1-----------------------------------------------
G-------2---2-------2---2---------------------------------------------
D-----2-----------2-------2-------------------------------------------
A---0-----------0-----------------------------------------------------
E-------------0-------------------------------------------------------

This is the basic strumming pattern you?ll use over the entire song.

Am C G F
e---------0-----------0-----------3-----------0-----------------------
B---------1-----------1-----------3-----------0-----------------------
G-------2-----------0-------------0-----------1-----------------------
D-----2-----------2-------------0-----------3-------------------------
A---0-------0-2-3-------------2-----------3---------------------------
D-----------------------0-2-3-------3-2-1-------1-3-------------------

Am F Am F
e--------0-----------0-----------0-----------0------------------------
B--------1-----------0-----------1-----------0------------------------
G------2-------------1---------2-------------1------------------------
D----2-------------3---------2-------------3--------------------------
A--0-------0-----3---------0-------0-----3----------------------------
D------------3-1-------1-3-----------3-1-------1-3--------------------

Here are the lyrics, mang. I?ve listed the chord changes over the first line
that gets the pattern played over it. So whenever you see the chord name
stuck in the middle of a word, that?s your cue to play the note directly
beneath the chord name in the tablature above.

Lovin U(Am) thru it a(C)ll
Thick and th(G)in, bad and g(F)ood
Sun and r(Am)ain, and the s(F)un
And the s(Am)un, and the r(F)ain

Lovin U thru it all
Thick and thin, rain and sun and rain
Bad and good, sun and rain
Lovin U, lovin U

Lovin U thru it all
Thick and thin, bad and bad
Sun and rain, rain and sun
Good and bad, rain and sun

Lovin U thru it all
Lovin U thru it all
Lovin U thru it all
Lovin U thru it all

Lovin U thru it all, lovin U thru it all
Thick and thin, good and bad
Sun and rain, good and thin
Good and bad, thru it all

Lovin U thru it all
Thick and thin, good and bad
Sun and rain. Lovin U
Lovin U thru it all

Lovin U thru it all
Till the end (jangle on Am, 5th position)

**Tabbed out by Jordie
jjjordie@collegeclub.com
home.collegeclub.com/jjjordie
Awesome Sound - Ween Guitar tabs (www.vaxxine.com/mtbhl/ween.htm)