I SAW GENER CRYIN' IN HIS SLEEP - words and music by Ween
from the album "Pure Guava"

I Saw Gener Cryin' In His Sleep - by Ween

G
i saw my brother weepin' in the dead of the night
C
i said, dude man, you feelin' alright
G
gener said nothin' and continued to weep
F
i caught papa gene ween cryin' in his sleep

F G
i saw gener cryin' in his sleep
F G
i tried to wake him up but he made not a peep
F G F
i saw gener cryin' in his sleep

G
life at the top can be tough
C
sometimes u think you've seen enough
G
but u can find a diamond in the rough
F
but when it's time for bed you shouldn't

think about that stuff

F G
i saw gener cryin' in his sleep
F G
i tried to wake him up but he made not a peep
F G F
i saw gener cryin' in his sleep

E |==================================9===9===10=9===8=============
B |================3===================8===8======8===8===========
G |======3=4=3=4=3================================================
D |==5=5=============5==5=5=5=5==5=5==============================
A |===============================================================
E |===============================================================

E |=============================10=13=12====10=11=12=13=14=15=====
B |=====12====13=13====12=12=13==========13=======================
G |==10====10=======10============================================
D |===============================================================
A |===============================================================
E |===============================================================

F G
i saw gener cryin' in his sleep
F G
i tried to wake him up but he made not a peep
F G F G
i saw gener cryin' in his sleep

***Bass Tabs*** by Guff

q q q q q q q q q q q q q q q q q
----|--------------|--------------|--------------|--------------|-------
4:--|--5-----------|--------------|-----5-----5--|-----5-----5--|-------
4:--|-----5-----5--|-----5-----5--|--3-----3-----|--3-----3-----|-------
----|--------3-----|--3-----3-----|--------------|--------------|--3----
Verse 1

q q q q q q q e e e e e e Q e e e q e e
---------|--------------|--------r--------r-----|--------r--------------
---------|--------------|--------e--------e-----|--------e--------------
5-----5--|-----5-----5--|--5--5--s--5--5--s--5--|--5--5--s--5--5--5-----
---3-----|--3-----3-----|--------t--------t-----|--------t--------------

e q q q q q q q q q q q q q q q q q
---|--------------|--------------|--------------|--------------|--------
---|--------------|--------------|--------------|--------------|--------
5--|--------------|--------------|--------------|--------------|--------
---|--1--1--1--1--|--3--3--3--3--|--1--1--1--1--|--3--3--3--3--|--1-----
Chorus

q q q q q q q e e e e e e Q e e e q e e
---------|--------------|--------r--------r-----|--------r--------------
---------|--------------|--------e--------e-----|--------e--------------
---------|--------------|--5--5--s--5--5--s--5--|--5--5--s--5--5--5-----
1--1--1--|--3--3--3--3--|--------t--------t-----|--------t--------------

e q q q q q q q q q q q q q q q q q
---|--------------|--------------|--------------|--------------|--------
---|--------------|--------------|-----5-----5--|-----5-----5--|--------
5--|-----5-----5--|-----5-----5--|--3-----3-----|--3-----3-----|--------
---|--3-----3-----|--3-----3-----|--------------|--------------|--3-----
Verse 2

q q q q q q q e e e e e e Q e e e q e e
---------|--------------|--------r--------r-----|--------r--------------
---------|--------------|--------e--------e-----|--------e--------------
5-----5--|-----5-----5--|--5--5--s--5--5--s--5--|--5--5--s--5--5--5-----
---3-----|--3-----3-----|--------t--------t-----|--------t--------------

e q q q q q q q q q q q q q q q q q
---|--------------|--------------|--------------|--------------|--------
---|--------------|--------------|--------------|--------------|--------
5--|--------------|--------------|--------------|--------------|--------
---|--1--1--1--1--|--3--3--3--3--|--1--1--1--1--|--3--3--3--3--|--1-----
Chorus

q q q q q q q e e e e e e Q e e e q e e
---------|--------------|--------r--------r-----|--------r--------------
---------|--------------|--------e--3-----e-----|--------e--3-----------
---------|--------------|--5--5--s-----5--s--5--|--5--5--s-----5--5-----
1--1--1--|--3--3--3--3--|--------t--------t-----|--------t--------------

e q q q q q q q q q q q q q q q q q
---|--------------|--------------|--------------|--------------|--------
---|--------------|--------------|--------------|--------------|--------
5--|-----5-----5--|-----5-----5--|-----5-----5--|-----5--------|--------
---|--3-----3-----|--3-----3-----|--3-----3-----|--3-----1--1--|--3-----
Guitar Solo

q q q q q q q q q q q q q q q q q q q
---------|--------------|--------------|--------------|-----------------
---------|--------------|--------------|--------------|-----------------
5-----5--|-----5--------|-----5-----5--|-----5-----5--|-----5-----5-----
---3-----|--3-----1--1--|--3-----3-----|--3-----3-----|--3-----3--------
Whistling Solo

q q q q q q q q q q q q q q q q q q
|--------------|--------------|--------------|--------------|-----------
|--------------|-----5-----5--|-----5-----5--|--------------|-----------
|-----5-----5--|--3-----3-----|--3-----3-----|-----5-----5--|-----5-----
|--3-----3-----|--------------|--------------|--3-----3-----|--3--------

q q e e e e e e Q e e e q e e e q q q q
------|--------r--------r-----|--------r--------------|-----------------
------|--------e--------e-----|--------e--3-----------|-----------------
---5--|--5--5--s--5--5--s--5--|--5--5--s-----5--3--2--|-----------------
3-----|--------t--------t-----|--------t--------------|--1--1--1--1-----
Chorus

q q q q q q q q q q q q q q q q q q
|--------------|--------------|--------------|--------------|-----------
|--------------|--------------|--------------|--------------|-----------
|--------------|--------------|--------------|--------------|-----------
|--3--3--3--3--|--1--1--1--1--|--3--3--3--3--|--1--1--1--1--|--3--3-----

q q e e e e e e Q e e e q e e e
------|--------r--------r-----|--------r--------------|-----------------
------|--------e--------e-----|--------e--------------|-----------------
------|--5--5--s--5--5--s--5--|--5--5--s--5--5--5--5--|-----------------
3--3--|--------t--------t-----|--------t--------------|-----------------

**Tabbed by gustave
Awesome Sound - Ween Guitar tabs (www.vaxxine.com/mtbhl/ween.htm)