SARAH - words and music by Ween
**from the album "Pure Guava"

In every live version I've heard of Sarah I'm sure that they play it like
this. So if you want to sound more like Gener on Pure Guava, you'll have to
move everything up one step ie.(A,D,F#m,B,Bm,A)


Sarah

G C Em A Am G
When I find you in your sle-ee-eep -- Sar-ah
G C Em A Am G
I will tell you what you mean to me -- Sar-ah
G C Em A Am G
Ahh this big world ain't always what it seems -- Sar-ah
G C Em A Am G
Forever may I love you and forever may you dream - -Sar-ah

Solo (With Slide and guitar echo)

E |=========================================================
B |==8=8=8/10~=10/13/14==14/17==17\12==12/14\12~==12/14\10==
G |=========================================================

G C Em A Am G
When I find you in your sle-ee-eep -- Sar-ah
G C Em A Am G
I will tell you what you mean to me -- Sar-ah

*****Version 2*****

Ann was good enough to send in this.

A D F# B Bm...then back to A

***Bass Tab*** by Guff

Bass is pretty quiet here.

h h h h h h h 4x
----|-----||---------|--------|------|---------|-------------||--||-----
4:--|-----||*--------|--4-----|--2:--|---------|--4:--------*||--||*----
4:--|--12\||*-----5--|-----2--|--4:--|--2/4\2--|--4:--------*||--||*----
----|-----||---5-----|--------|------|---------|------5--5---||--||-----
First Verse

h h h h h h h 2x w H
------|--------|------|---------|-------------||--r--|------|--r--------
------|--4-----|--2:--|---------|--4:--------*||--e--|--3:--|--e--------
---5--|-----2--|--4:--|--2/4\2--|--4:--------*||--s--|--4:--|--s--------
5-----|--------|------|---------|------5--5---||--t--|------|--t--------
Solo

h h h h h h h 2x
-------||---------|--------|------|---------|-------------||-------------------
4:-----||*--------|--4-----|--2:--|---------|--4:--------*||-------------------
4:-12\-||*-----5--|-----2--|--4:--|--2/4\2--|--4:--------*||-------------------
-------||---5-----|--------|------|---------|------5--5---||-------------------
Second Verse

**Tabbed by Jerm and Todd
Awesome Sound - Ween Guitar tabs (www.vaxxine.com/mtbhl/ween.htm)