PUMPIN' 4 THE MAN - words and music by Ween
from the album "Pure Guava"

I wouldn't say this tab is 100% correct, but it's as good as anything out
there. I figured out the bass part on a guitar so you may have to move it
cuz it'll sound too low.

Pumpin' 4 The Man - by Ween

bass part
e|=======|================================================================
B|=======|================================================================
G|=======|======================2=3=5=3=2=3===============================
D|===6=5=|=====2=3=5=3=2=3==3=3==================2=3=5=3=2=3==============
A|=======|=3=3===============================3=3==================2=3=5===
E|=3=====|====================================================3=3=========

e|================================================================
B|================================================================
G|======================2=3=5=3=2=3===================3=3=2=0=====
D|=====2=3=5=3=2=3==3=3================2=3=2==================3===
A|=3=3===============================3=========2=3=2==============
E|===========================================3====================

C F
It's a nine mile walk from the office to the pumps
C G
Sometimes you think you're gonna drop
C F
In the end you're filthy dirty, horny and pissed off
C G C
And before you can leave you gotta sweep the fuckin' shop
It's a real real bitch to be workin' 4 the man
But shit I do it well so what the fuck
I could probably wash dishes at some other fuckin' dump
But it's all the same to me bustin' ass to make a buck

So read 'em up and stick 'em, pump that fucker good
Some woman down on Main Street needs a jump
Get your fingers out of your ass and pump some faggots gas
And think about how bad New Hope sucks

Well it's a piss poor life when the ladies fire you up
And then you check their oil and know you're fucked
Cause no one wants a loser who works for five an hours
Smells like gas, looks like shit, works in the rain and rude as hell
Well I can fix a tire like a hurricane Melinda
I know that I'm the best for what it's worth
So if I choose to help ya, don't look like you expect it
Cause it's a gift that God gave me at birth

So read 'em up and stick 'em, pump that fucker good
Some woman down on Main Street needs a jump
Get your fingers out of your ass and pump some faggots gas
And think about how bad New Hope sucks

Solo (same basic pattern as the bass part)

So read 'em up and stick 'em, pump that fucker good
Some woman down on Main Street needs a jump
Get your fingers out of your ass and pump some faggots gas
And think about how bad New Hope sucks

***Bass Tab*** by Guff

w q q e e e e e e e e e e e e e e e
----|--r--|--------------------|-----------------------6--|-------------
4:--|--e--|-----7--6--4--------|--------3--3--4--5--6-----|--------8----
4:--|--s--|--------------7--7--|--4--4--------------------|--9--9-------
----|--t--|--4-----------------|--------------------------|-------------
It's a nine mile walk.....

e e e e e e e e e e e e e e e e e e e e
--------------11--|-----------------------6--|--------------------------
8--9--10--11------|--------3--3--4--5--6-----|--------7--7--6--6--4-----
------------------|--4--4--------------------|--------------------------
------------------|--------------------------|--4--4--------------------

e e e e e e e e e e e e e e e e e e e
---|-----------------------6--|-------------------------11--|-----------
---|--------3--3--4--5--6-----|--------8--8--9--10--11------|-----------
6--|--4--4--------------------|--9--9-----------------------|-----------
---|--------------------------|-----------------------------|--4--4-----

e e e e e e e e e e e e e e e e e e e e
------------------|----------------------------|------------------------
------------------|--------3--4--4/6-----------|--------3--3--4--5------
3--3--5--5--4--3--|--4--4----------------------|--4--4------------------
------------------|-------------------4--4--4--|------------------------

e e e e e e e e e e e e e e e e e e e
---6--|-------------------------11--|-----------------------6--|--------
6-----|--------8--8--9--10--11------|--------3--3--4--5--6-----|--------
------|--9--9-----------------------|--4--4--------------------|--------
------|-----------------------------|--------------------------|--4-----

e e e e e e e e e e e e e e e e e e e e e
---------------------|--------------------------|-----------------------
---7--7--6--6--4-----|--------3--3--4--5--6--6--|--------8--8--9--10----
------------------6--|--4--4--------------------|--9--9-----------------
4--------------------|--------------------------|-----------------------

e e e e e e e e e e q q e e e e e e e
----11--|--------------------------|--------------------|---------------
11------|--------6--6--4--4--6--4--|--------------------|--------3------
--------|--------------------------|--4--4--4-----------|--4--4---------
--------|--4--4--------------------|-----------4--4--4--|---------------
So eat em' up.....

e e e e e e e e e e e e e e e e e e e e
------------6--|-------------------------11--|--------------------------
3--4--5--6-----|--------8--8--9--10--11------|--------3--3--4--5--6-----
---------------|--9--9-----------------------|--4--4--------------------
---------------|-----------------------------|--------------------------

e e e q q e e e e e e e e e e e e e e e
6--|--------------------|-----------------------6--|--------------------
---|--------6--7--6--4--|--------3--3--4--5--6-----|--------8--8--9-----
---|--------------------|--4--4--------------------|--9--9--------------
---|--4--4--------------|--------------------------|--------------------

e e e e e e e e e e e q q e e e e e
--------11--|----------------------------|--------------------|---------
10--11------|--------3--4---/6-----------|--------------------|---------
------------|--4--4----------------------|--4--4--4-----------|--4------
------------|-------------------4--4--4--|-----------4--4--4--|---------

e e e e e e e e e e e e e e e e e e e e
------------------6--|-------------------------11--|--------------------
---3--3--4--5--6-----|--------8--8--9--10--11------|--------3--3--4-----
4--------------------|--9--9-----------------------|--4--4--------------
---------------------|-----------------------------|--------------------

e e e e e e e e e e e e e e e e e e e e
------6--|--------------------------|-----------------------6--|--------
5--6-----|--------7--7--6--5--4--3--|--------3--3--4--5--6-----|--------
---------|--------------------------|--4--4--------------------|--9-----
---------|--4--4--------------------|--------------------------|--------

e e e e e e e e e e e e e e e q q s s
--------------------11--|----------------------------|------------------
---8--8--9--10--11------|--------3--4---/6--------6--|------------------
9-----------------------|--4--4----------------------|--4--4--4--4------
------------------------|-------------------4--4-----|------------------

e e e e e e e e e e e e e e e e e e e
---------|-----------------------6--|-------------------------11--|-----
---------|--------3--3--4--5--6-----|--------8--8--9--10--11------|-----
1--2--3--|--4--4--------------------|--9--9-----------------------|-----
---------|--------------------------|-----------------------------|-----
"I can fix your tyre....."

e e e e e e e e q q e e e e e e e e e e e
---------------------6--|--------------------|--------------------------
------3--3--4--5--6-----|-----7--6--4--6--4--|--------3--3--4--5--6-----
4--4--------------------|--------------------|--4--4--------------------
------------------------|--4-----------------|--------------------------

e e e e e e e e e e e e e e e e e q
6--|-------------------------11--|----------------------------|---------
---|--------8--8--9--10--11------|--------3--4---/6-----7--6--|---------
---|--9--9-----------------------|--4--4----------------------|--4------
---|-----------------------------|-------------------4--------|---------

q e e e e e e e e e e e e e e e e e e e
---------------|-----------------------6--|-----------------------------
---------------|--------3--3--4--5--6-----|--------8--8--9--10--11------
4--2--2--------|--4--4--------------------|--9--9-----------------------
---------4--4--|--------------------------|-----------------------------

e e e e e e e e e q q e e e e e e e e e
11--|-----------------------6--|--------------4--5--|--6----------------
----|--------3--3--4--5--6-----|--6--7--6--7--------|--------3--3--4----
----|--4--4--------------------|--------------------|-----4-------------
----|--------------------------|--------------------|-------------------

e e e e e e q e e e e e e e e e e e q q
---------|--------5--6--5--6--5--|--------------------------|-----------
5--6--6--|--4--4-----------------|--------3--4--------------|-----------
---------|-----------------------|--4--4--------------3--6--|--4--4-----
---------|-----------------------|--------------4--4--------|-----------

e Q e e e e e e e e e e e e e e e e
---r--|------------------------------|--11--11--9--9--------------------
---e--|--11--11--9--9----------------|----------------11--10--9--8------
---s--|----------------11--10--9--8--|----------------------------------
4--t--|------------------------------|----------------------------------
Solo

e e e e e e e e q e e e e q e e
|------------------------------|----------------------|--13--13--13-----
|--11--11--9--9----------------|--13--13--13--13--13--|--11--11--11-----
|----------------11--10--9--8--|--11--11--11--11--11--|--11--11--11-----
|------------------------------|----------------------|-----------------

e e e e e e e e e e e e e e e e
13--13--13--13--|--18--18--16--18--21--20--21--20--|--15--15--13--12----
11--11--11------|----------------------------------|--------------------
----------------|----------------------------------|--------------------
----------------|----------------------------------|--------------------

e e e e e e e e q q e e e q q e e e
----------------|--------------------|----------------------------------
10--------------|--------------------|--11--11--9--9--9-----------------
----11--11--11--|--9--9--7--6--4-----|-------------------11--10--9------
----------------|-----------------4--|----------------------------------
So eat 'em up.....

e e e e q e e e e e e q q e e e e
|--11--11--9--9--9-------------|------------------------------|---------
|-------------------11--10--9--|--11--11--9--9--9-------------|---------
|------------------------------|-------------------11--10--9--|---------
|------------------------------|------------------------------|--4------

e e e e e e e e e e e e e e e e e e e e e
---------------------|--------------------------|-----6--4--3--4--3-----
------------6--4-----|-----6-----6--4--3--1--3--|--4--------------------
---3--4--6--------6--|--4-----4-----------------|-----------------------
4--------------------|--------------------------|-----------------------

e e e e e e e e e q e e q e
1--3--|--------------------------|-----------------||-------------------
------|-----3--4--6--------------|-----6--4--------||-------------------
------|--x-----------------------|--4--------4--4--||-------------------
------|--------------4--3--4--6--|-----------------||-------------------

**Tabbed by Todd
Awesome Sound - Ween Guitar tabs (www.vaxxine.com/mtbhl/ween.htm)