THE GOING GETS TOUGH FROM THE GETGO - words and music by Ween
from the album "Pure Guava"

The Going Gets Tough From The Getgo - by Ween

w q q q q q H q q q H q H e q
----||--r--|--------------|-----r--|----------------|-----r-----|-------
4:--||--e--|-----3--------|-----e--|-----3----------|-----e-----|-------
4:--||--s--|--5-----------|-----s--|--5-------------|-----s-----|--5----
----||--t--|--------3--2--|--3--t--|--------3^--4^--|--3--t--3--|-------
First Verse

q q H e s s e Q s q q s s q H s
-----------|-----r--r---------r-----|----------------|-----r--|---------
3----------|-----e--e---------e-----|-----3----------|-----e--|---------
-----------|-----s--s---------s-----|--5-------------|-----s--|--5------
---3^--4^--|--3--t--t--2^--3--t--2--|--------4^--2^--|--3--t--|---------
Chorus

s e s s e s s e s s e e Q e e e e q q q q
---------------------------------|-----r-----r-----r--|-----------------
3--------3--------3--------3-----|-----e-----e-----e--|-----3-----------
------5--------5--------5--------|-----s-----s-----s--|--5--------------
---1--------1--------1--------1--|--3--t--3--t--3--t--|--------3^--2----

q H s s e s s e s s e s s e q H e
---|-----r--|--------------------------------------|-----r-----||-------
---|-----e--|-----3--------3--------3--------3-----|-----e-----||*------
---|-----s--|--5--------5--------5--------5--------|-----s-----||*------
^--|--3--t--|--------1--------1--------1--------1--|--3--t--3--||-------

e e e e e e e e 3x q q q q q H s s e
---------------------------------||--------------|-----r--|-------------
--------------------------------*||--------------|-----e--|-----3-------
9^--4^----------9^--4-----------*||--5--6--3--2--|-----s--|--5----------
--------5^--2^-------^--5^--2^---||--------------|--3--t--|--------1----
Third Verse

s s e s s e s s e e e e e e e e e q q q
---------------------------|-----r-------------r----------|-------------
---3--------3--------3-----|-----e-------------e----------|-------------
5--------5--------5--------|-----s-------------s----------|--5--6-------
------1--------1--------1--|--3--t--4^--4^--3--t--4^--4^--|--------1----

e e q h s s s s s s e s s e q e e q h s
------|-----r-----r-----r--|-----------------------------|-----r--------
------|-----e-----e-----e--|-----3--------3--------------|-----e--------
6--8--|-----s-----s-----s--|--5--------5--------5--8-----|-----s--------
------|--3--t--3--t--3--t--|--------1--------1--------1--|--3--t--3-----

s s s q q q s s e e q e e e e e q q q q
r-----r--|---------------------|-----r-----------------|----------------
e-----e--|-----3---------3-----|-----e-----4-----------|-----3----------
s-----s--|--5---------5--------|-----s--5--------------|--5-------------
t--3--t--|--------2^--------1--|--3--t--------1--2--3--|--------1--2----
Chorus

s s e s s e s s e s s e s s e s s e h
|--------------------------------------|--------------------r--||-------
|-----3--------3--------3--------3-----|-----3--------3-----e--||-------
|--5--------5--------5--------5--------|--5--------5--------s--||-------
|--------1--------1--------1--------1--|--------1--------1--t--||-------

**Tabbed by Guff
Awesome Sound - Ween Guitar tabs (www.vaxxine.com/mtbhl/ween.htm)