PUSH TH' LITTLE DAISIES - words and music by Ween
*from the album "Pure Guava"

Here's a new improved version of Push Th' Little Daisies. Kudos to Kathy(?)
for sending this in.... here's the comments they included.

I don't know the real names of these chords....I can sort of guess
I got these chords from watching Gener in the Mercury lounge video
from 1-24-95. It will definitely make the song sound more authentic
and the chords are really easy to play.......

(modified Dmaj7) (modified Cmaj7) (D) (modified Bbmaj7) (modified D7 ?)
E======= E======= E==2== E======= E=======
B===7=== B===5=== B==3== B===3=== B===7===
G===6=== G===4=== G==2== G===2=== G===5===
D===7=== D===5=== D===== D===3=== D===6===
A======= A======= A===== A======= A===7===
E======= E======= E===== E======= E=======

Dmaj7(mod) Cmaj7(mod)
When you lie kiss your baby bye bye bye
D Bbmaj7(mod)
If you're true the whole wide world will love with you
Dmaj7 Cmaj7
When we see nothing's wrong with you and me
D Bbmaj7
Time will tell it might even ring a wedding bell
Dmaj7 Cmaj7
If you think - that I'm a loser
D Bbmaj7
Well you suck cuz you know I ain't nothing but a user
Dmaj7 Cmaj7
Of your love - I can't get enough
D Bbmaj7
Girl its true the whole wide world is smiling with you
Dmaj7(mod) D7(mod)
Push th' little daisies and make 'em come up
Dmaj7 D7
Push th' little daisies and make 'em come up
Dmaj7 D7
Push th' little daisies and make 'em come up
Dmaj7 D7
Push th' little daisies and make 'em come up

Dmaj7 Cmaj7
Sometimes I know and sometimes I'm on the go
D Bbmaj7
But I'm coming back so don't give me no flack jack
Dmaj7 Cmaj7
It's all you - and it's me too
D Bbmaj7
And it's your world you's the girl you's the girl
Dmaj7 Cmaj7
Happier than shit - things that might go click with
D Bbmaj7
Me click with you is that love? Is that love?
Dmaj7
Oh Push th' little daisies and make 'em come up
Cmaj7
Push th' little daisies and make 'em come up
D
Push th' little daisies and make 'em come up
Bbmaj7
Push th' little daisies and make 'em come up
Dmaj7 D7
Push th' little daisies and make 'em come up
Dmaj7 D7
Push th' little daisies and make 'em come up
Dmaj7 D7
Watch the little daisies grow........make em come, make em come up...etc

***Version 2*** - by Moss Ryder

The initial a, e,d,f progression was close to correct, and so was the
update, but the actual chords are, i think...
A6-Em-D-F6
with the chorus A6-Eaug9

***Version 3*** - by Allan Evans

B6 Dmaj7/F# E G6
----7---- ---5---- ---7---- ---3---
----9---- ---7---- ---9---- ---5---
----8---- ---6---- ---9---- ---4---
----7---- ---4---- ---9---- ---3---
----9---- -------- ---7---- ---5---
----7---- -------- -------- ---3---

so it just follows those chords. the F# bass on the Dmaj7 doesn't
make much difference but it's there if you want. the chorus just plays
the first two chords.

***Version 4*** by SteamedHams

Chords:

EADGBE E A D G B E EADGBE EADGBE EADGBE
6x878x x 8 10 10 9 8 x6888x x6887x x8768x
x8878x
Bb6 Fm Eb Ebm F+(add9)
(either)

I'm not sure of the exact name of the augmented F but that's good enough.

Verse/outro:
Bb6 Fm Eb Ebm

Chorus:
Bb6 F+(add9)

***Bass tabs*** tabbed by Achilles (blue_sincere@hotmail.com)

intro/verse (variations of this are mostly just extra strumming of these given notes)
G|-------------------------------------------------------------|
D|----------------3-3--3-33---3-1-1-11-111-111-1/4-4-4-444-6-4-|
A|1-1----1---1--1----------------------------------------------|
E|-----3---3---1-----------------------------------------------|

1st chorus (x2)
G|--------------------------------|
D|------/3-3-333-3------/3-3-h5-3-|
A|1111-1----------1111-1----------|
E|--------------------------------|

2nd CHORUS/OUTRO
play the verse measure once, then:
(x4)
G|---------------|
D|---------------|
A|1-1-111--------|
E|-------2--222-2|

then play the 1st chorus measure twice and then:

G|----------------<15>--15-15-15----------|
D|------/5-3-5-57------------------531----|
A|1-1-1-------------------------------1---|
E|----------------------------------------|

***Bass tab #2*** by Guff

This is tabbed so you can play along. Who knows where the bass is
actually tuned/sped up/down to. During the outro, some of the notes
will sound a little off. This is because they are.

e E s s s e e e e e E E h e e e s s
----||-----------------------------|-----------------|------------------
4:--||-----------------------------|-----------------|------------------
4:--||--1--1--------1-----1-----1--|--8--8--8--8--8--|--6--6--6--6------
----||--------1--1-----1-----1-----|-----------------|------------------
Intro

Q s s e e e s s e e e E e e s s s t t t
------------|----------------------------|------------------------------
------------|----------------------------|------------------------------
6--6--6--6--|--9--9--9--9--11--9--11--9--|--1--1--------1--1-----1------
------------|----------------------------|--------1--1--------1---------
First Verse

t t e E E h e e e s s Q s s s e e e s s
------|-----------------|-----------------------------|-----------------
------|-----------------|-----------------------------|-----------------
---1--|--8--8--8--8--8--|--6--6--6--6--6--8--6--8--6--|--9--9--9--9-----
1-----|-----------------|-----------------------------|-----------------

e e e s s s e e s s s t t t t t e E s s
---------------------|--------------------------------|-----------------
---------------------|--------------------------------|-----------------
11--9--11--9--11--9--|--1--1--------1--1-----1-----1--|--8--8--8--8-----
---------------------|--------1--1--------1-----1-----|-----------------

h e e e s s Q s s s e e e s s e e e s
-----------|-----------------------------|------------------------------
-----------|-----------------------------|------------------------------
/10--8--8--|--6--6--6--6--6--6--6--6--6--|--9--9--9--9--11--9--11--9----
-----------|-----------------------------|------------------------------

s s e E s s s e e e e e E s s h e e e
-------|-----------------------------|-----------------------|----------
-------|-----------------------------|-----------------------|----------
11--9--|--1--1--------1-----1-----1--|--8--8--8--8/10--8--8--|--6--6----
-------|--------1--1-----1-----1-----|-----------------------|----------

s s Q s s s e e e s s e e e s s e E s
---------------------|------------------------------------|-------------
---------------------|------------------------------------|-------------
6--6--6--8--6--8--6--|--9--9--9--9--11--9--11--9--11--11--|--1--1-------
---------------------|------------------------------------|--------1----

s s e e e e e E s s h s s e e S s s s s
------------------|---------------------------|-------------------------
------------------|---------------------------|-------------------------
---1-----1-----1--|--8--8--8--8/10--8--10--8--|--6--6--6--5--6--5--6----
1-----1-----1-----|---------------------------|-------------------------

s s e e s s e e e s s e e s E e e q
------|----------------------------------|------------/10--10--10--|----
------|----------------------------------|-------------------------|----
5--6--|--9--9--9--9--11--13--11--13--11--|-------------------------|----
------|----------------------------------|--6--6--6--6-------------|----
Chorus

e e s E e e e e e e s E e e q e e s
----------/10--10--10/12--10--|------------/10--10--10--|---------------
------------------------------|-------------------------|---------------
------------------------------|-------------------------|---------------
6--6--6--6--------------------|--6--6--6--6-------------|--6--6--6------

E e e e e e e s s s t t t t t e E s s
-/10--10--10/12--10--|--------------------------------|-----------------
---------------------|--------------------------------|-----------------
---------------------|--1--1--------1--1-----1-----1--|--8--8--8--8-----
6--------------------|--------1--1--------1-----1-----|-----------------
Second Verse

h e e e s s e e e e e e e s s e Q e e
-----------|----------------------------|-----------------------|-------
-----------|----------------------------|-----------------------|-------
/10--8--8--|--6--6--6--6/8--6--8--6--8--|--9--9--9--9/11--9--9--|--1----
-----------|----------------------------|-----------------------|-------

e s s s t t t t t e E s s h e e e s s e
---------------------------|-----------------------|--------------------
---------------------------|-----------------------|--------------------
1--------1--1-----1-----1--|--8--8--8--8/10--8--8--|--6--6--6--6/8------
---1--1--------1-----1-----|-----------------------|--------------------

e e e e e e s s e e e s s e e E s s s e
------------|-----------------------------------|-----------------------
------------|-----------------------------------|-----------------------
6--8--6--8--|--9--9--9--9--11--9--11--9--11--9--|--1--1--1--1--1--1-----
------------|-----------------------------------|-----------------------

e e e e E s s s s s e e s E e e e s s
---------|--------------------r----|-----------------------------|------
---------|--------------------e----|-----------------------------|------
---1--1--|--8--8--8--8--7--8--s/8--|--6--6--6--6--6--6--6--6--6--|------
1--------|--------------------t----|-----------------------------|------

e e s s s s s s s E s s e e s s s t t t t t
------------------------------------|-----------------------------------
------------------------------------|-----------------------------------
9--9--9--9--9--9--9--9--9--9--9--9--|--1--1--------1--1-----1-----1-----
------------------------------------|--------1--1--------1-----1--------
Chorus

e E s s h e e e s s e e e e e e e s s
|-----------------------|-----------------------------|-----------------
|-----------------------|-----------------------------|-----------------
|--8--8--8--8/10--8--8--|--6--6--6--6--8--6--8--6--8--|--9--9--9--9-----
|-----------------------|-----------------------------|-----------------

e e e s E e e s E e e e s s e s s s E e
------------------|-----------------------------|-----------------------
------------------|-----------------------------|-----------------------
11--9--11--9--11--|-----------------------------|-----------------------
------------------|--6--6--6--6--1--1--1--1--1--|--6--6--6--6--6--1-----

e s s s s e e s E e e e s s e s s s E e e
---------------|-----------------------------|--------------------------
---------------|-----------------------------|--------------------------
---------------|-----------------------------|--------------------------
1--1--1--1--1--|--6--6--6--6--1--1--1--1--1--|--6--6--6--6--6--1--1-----

e s s e s s s E e e e e e s s s E e e
---------|-----------------10--10--10--10--|-----------------10--10-----
---------|---------------------------------|----------------------------
---------|---------------------------------|----------------------------
1--1--1--|--6--6--6--6--6------------------|--6--6--6--6--6-------------

e e e s s s E e e e e e s s s E e
10/12--10--|-----------------10--10--10--10--|-----------------10-------
-----------|---------------------------------|--------------------------
-----------|---------------------------------|--------------------------
-----------|--6--6--6--6--6------------------|--6--6--6--6--6-----------

e e e e s s s E e e e s s Q e e
10--10/12--10--|-----------------10--12--10--12--14--|--15--15--15------
---------------|-------------------------------------|------------------
---------------|-------------------------------------|------------------
---------------|--6--6--6--6--6----------------------|------------------
Outro

e e e e e s s s s s s s s s e s e e
15--15--15--|--15--15--17--15--12--10--10--7--7h8--|p7--4--4--3--3------
------------|--------------------------------------|--------------------
------------|--------------------------------------|--------------------
------------|--------------------------------------|--------------------

e E E e s s s E q e e e e s s s E q e e
3------|---------------/12--10--10--10--|---------------/12--10--10-----
-/8/8--|--------------------------------|-------------------------------
-------|--------------------------------|-------------------------------
-------|--6--6--6--6--6-----------------|--6--6--6--6--6----------------

e q q
10--|--------r--||------------------------------------------------------
----|--------e--||------------------------------------------------------
----|--------s--||------------------------------------------------------
----|--6--6--t--||------------------------------------------------------

**Tabbed by Kathy Falcone(?)
Awesome Sound - Ween Guitar tabs (www.vaxxine.com/mtbhl/ween.htm)