FLUFFY - words and music by Ween
from the album "12 Golden Country Greats"

There's two versions of this song. The first is closer to the studio
version, and the second is how they play it live. I did the solo.

Fluffy - by Ween

The studio musician plays this one in dropped D. To get it in tune with
the recording I had to detune my whole geetar and then drop the D.

e--------------------------------1--------------------------------------
B--------1---3-1-------------3---3---3----------------------------------
G------0---0-----0-----------2-------2----------------------------------
D------------------2-----------0---0---0--------------------------------
A----3---------------------0--------------------------------------------
D--------------------3-2-0----------------------------------------------

This picking pattern is close I think, but it's probably pretty fucked.
He jingles and jangles between C and Dm like this 3 times. As long as you
get the 5/4 time it's cool.

Then for 4 beats each, twang around on:

C5 C???? E Dm (5th position, slide up)

x 5
3 4341 4 6
5 3 2 2 7
5 3 3 3 7
3 3 3 3 3 5
x 3 0

That's it! This is reapeated till the song's over.

Gener's slide guitar solo (yep, not Dean) just follows the chords
over the progression as it's played twice till the end of the song.

***Version 2***

* = This riff...On the 6th stiring (the low E) do this little walk down:

D|-------------
A|-------------
E|--3---2---0-- (then land on Em)

For the F/D, play this:

e|--1--
B|--1--
G|--2--
D|--0--
A|-----
E|-----

D * Em D * Em
Fluffy, furry buddy, chewed his leg on the porch
D F/D G
Why?d you do it Fluffy - on the porch
D * Em D * Em
Good dog Fluffy, old friend, my pal
D F/D G
Fluffy?s got his buddy, on the porch

D * Em D * Em
Penny - she?s my girlie, she sits here with me, on the porch
D F/D G
Penny looks so pretty, on the porch
D * Em D * Em
Penny takes Fluffy -- for a walk -- out on the path
D F/D G
Fluffy chases the other doggies -- on the path
D * Em D * Em
The pig says to Penny get Fluffy back on the porch
D F/D G
So me and Fluffy and Penny are on the Porch

D * Em D * Em
D F/D G

e|==============================3====3h5p3==1h3p3==
B|=5==3=5=6===5=6=5===5=3=1========================
G|==========================2======================
D|=================================================
A|=================================================
E|=================================================

REPEAT

***Bass Tab*** by Geoffrey Dickens

Another song with the bass seemingly playing a D one octave lower than in
droppped - D. Only in some bits. The song is in dropped-D.

w q w w q w 2x w
||------|--r--r--|------|--r--||-------|--r--r--|------|--r---||--||---r--------
||--5:--|--e--e--|--4:--|--e--||*--5:--|--e--e--|--4:--|--e--*||--||*--e--------
||--4:--|--s--s--|--4:--|--s--||*--4:--|--s--s--|--4:--|--s--*||--||*--s--------
||------|--t--t--|------|--t--||-------|--t--t--|------|--t---||--||---t--------
Intro Verse 1

4x w e e w w e e w w H
-||------|-----------|------|-----|------|-----------|------|-----|-----|--r----
*||--5:--|-----------|--4:--|-----|--5:--|-----------|--4:--|-----|-----|--e----
*||--4:--|--3--------|--4:--|-----|--4:--|--3--------|--4:--|-----|--3--|--s----
-||------|-----3--2--|------|--0--|------|-----3--2--|------|--0--|-----|--t----
Verses 2 & 3

e e w w 2x w e e w 2x H e e w
r-----|-----|--r------||------||------------|------|------||-----r-----|-----|--
e--5--|--3--|--e-----*||--5:--||*-----------|--4:--|-----*||-----e-----|-----|--
s-----|-----|--s-----*||--4:--||*--3--------|--4:--|-----*||--3--s-----|--3--|--
t-----|-----|--t-(3)--||------||------3--2--|------|--0---||-----t--3--|-----|--
Verse 4

H e e w w e e w 2x H e e w H e
---r-----|-----|------||------------|------|------||-----r-----|-----|-----r----
---e-----|--3--|--5:--||*-----------|--4:--|-----*||-----e-----|-----|--3--e----
---s--3--|-----|--4:--||*--3--------|--4:--|-----*||--3--s-----|--3--|-----s----
3--t-----|-----|------||------3--2--|------|--0---||-----t--3--|-----|-----t----
Verse 5

e w w e e w 2x H e e w H e e
---|-----|------||---------------|------|------||-----r-----|-----|-----r-----|-
---|-----|------||*-5:-----------|--4:--|-----*||-----e-----|-----|-----e-----|-
3--|-----|------||*-4:--3--------|--4:--|-----*||--3--s-----|--3--|-----s--3--|-
---|--3--|------||---------3--2--|------|--0---||-----t--3--|-----|--3--t-----|-
Solo

w w e e H q w e e H q
---|------|-----------|------|--------|------|-----------|------|--------|------
3--|--5:--|-----3--2--|--4:--|--0-----|--5:--|-----------|--4:--|--------|------
---|--4:--|--3--------|--4:--|--------|--4:--|--3--------|--4:--|-----5--|------
---|------|-----------|------|-----0--|------|-----3--2--|------|--0-----|------

H e e H e e w w
---r----|-----r------|-----|-----||---------------------------------------------
---e--5/|/10--e------|-----|-----||---------------------------------------------
3--s----|-----s--10--|--8--|-----||---------------------------------------------
---t----|-----t------|-----|--3--||---------------------------------------------

**Tabbed by Jordie and Bart Hutchinson and Brandon Smith
jjjordie@collegeclub.com
home.collegeclub.com/jjjordie
Awesome Sound - Ween Guitar tabs (www.vaxxine.com/mtbhl/ween.htm)