HELP ME SCRAPE THE MUCUS OFF MY BRAIN - words and music by Ween
from the album "12 Golden Country Greats"

Help Me Scrape The Mucus Off My Brain - by Ween

Intro (G, Bm, Am, G)

Am
I guess it?s something in my brain
D G D/F# Em
I need whiskey to ease the pain
C
But it?s early in the morning
D G Bm Am G
and I?m feeling bad again
C
But if you ever loved me
D G D/F# Em
you?ll go easy on me now
A7
Fix me up a cup of coffee
D
and in a while I?ll come around
Am
I think I?ll spend the dogfood money
D G D/F# Em
but he?ll love me just the same
C
But if you really love me baby
D G Bm Am G
Help me scrape the mucus off my brain

***Tabbed Solo by phippsy (gophippsygo@hotmail.com)

Comments or Corrections most welcome.

(*) indicates a muted fret.

Acoustic Solo Pt. 1

|----------7----10--10--10--10--8--7-----8--7----------------------------------------------|
|------8--------------------------------------------10------8--10h--8p---------------------|
|--7---------------------------------------------------------------------------11--9-------|
|------------------------------------------------------------------------------------------|
|------------------------------------------------------------------------------------------|
|------------------------------------------------------------------------------------------|

 

|------------------------------------------------------------------------------------------|
|------------------------------------------------------------------------------------------|
|-11--12h--11p--9p-------------------------------12--12--12--12--12--11--11--11------------|
|--------------------12--9----/12--12--10----------------------------------------12--14----|
|------------------------------------------12/14-------------------------------------------|
|------------------------------------------------------------------------------------------|

 

|------------------------------------------------------------------------------------------|
|------------------------------------------------------------------------------------------|
|------12--11p--9p-------------------------------------------------------------------------|
|--9------------------12--10p--9p----------------------------------------------------------|
|----------------------------------12--10p-------10--10--12--10----/14----10-----12--------|
|-------------------------------------------12---------------------------------------------|

 

|------------------------------------------------------------------------------------------|
|--------------------------------------------------------------------------------------12--|
|----------------------------------------------------------------------11---12---14--------|
|-------------------------------------------------------12-----14--14----------------------|
|--(10)--(12)---14-----(10)--(12)---14--14--14------14-------------------------------------|
|------------------------------------------------------------------------------------------|

 

|--------------------------------------------|
|--12--13----15--15--15-----12---------------|
|------------------------------------12------|
|--------------------------------------------| Enter Steel Guitar.
|--------------------------------------------|
|--------------------------------------------|

 

Acoustic Solo Pt. 2

|----------------------------------------------------------------0--2--4/5--3----5--3-----|
|---3--4--5--0(or3)--3--4--5--5-------------------------3--3--3---------------------------|
|--------------------------------5--4--5--4-----------------------------------------------|
|--------------------------------------------7--5--4--------------------------------------|
|-----------------------------------------------------------------------------------------|
|-----------------------------------------------------------------------------------------|

*Note: You could move this up on the neck and start on the 3rd string, 7th
fret--but I
prefer this way (it sounds more "tinny" like the recording, to me).

|--2--2--2-----0--0--0-----------------------------------------------7--8--7--------------|
|-----------3-----------(3)--0------------------------------------8-----------10--8--7----|
|-------------------------------0---3--2--0-----3--2--0-----0--0--------------------------|
|--------------------------------------------2-----------2--------------------------------|
|-----------------------------------------------------------------------------------------|
|-----------------------------------------------------------------------------------------|

 

|-------------7--8-----------------------------------|
|---7--8--10--------10--7--8-------------------------|
|--------------------------------------7-------------|
|-----------------------------------9-----9---7---5--|
|-------------------------------10-------------------|
|----------------------------------------------------|


It?s a shame when morning hurts,
I?ve seen bad and I?ve seen worse
it?s the nature of my being
I took some money from your purse
Now a Frenchman loves to party
and I know he?s not to blame
But the way you?re lookin? at me baby
I just can?t help but feel the shame

I think I?ll spend the dogfood money
but he?ll love me just the same
But if you really love me baby
Help me scrape the mucus off my brain
But if you really love me baby
Help me scrape the mucus off my brain

***Bass Tab*** by Geoffrey Dickens

q q q q H q e e e e e e e e e e e e e
||------|--------------|-----r--|-----r-----r-----r-----r--|-----r-----r--------
||--4:--|--------------|-----e--|--7--e-----e--7--e--7--e--|-----e-----e--------
||--4:--|--------2-----|-----s--|-----s--7--s-----s-----s--|--5--s-----s--5-----
||------|--3--3-----5--|--3--t--|-----t-----t-----t-----t--|-----t--5--t--------
Intro Verse 1

e e e e e e e e e e e e e e e e e e e e e e e
r-----r--|-----r-----r-----r-----r--|-----r-----r-----r--------|-----r-----r----
e-----e--|--5--e--5--e--4--e--5--e--|-----e-----e-----e--------|-----e-----e----
s--5--s--|-----s-----s-----s-----s--|--7--s-----s--7--s--7--5--|--3--s-----s----
t-----t--|-----t-----t-----t-----t--|-----t--7--t-----t--------|-----t--3--t----

e e e e e e e e e e e e e e e e e e e e e e e
---r-----r--|-----r-----r-----r-----r--|-----r-----r-----r-----r--|-----r-------
---e-----e--|-----e-----e-----e-----e--|-----e-----e-----e-----e--|-----e-------
3--s--3--s--|--5--s-----s--5--s--5--s--|-----s-----s--2--s-----s--|-----s--5----
---t-----t--|-----t--5--t-----t-----t--|--3--t--3--t-----t--5--t--|--3--t-------

e e e e e e e e e e e e e e e e e e e e e e e
r--------------|-----r-----r-----r-----r--|-----r-----r-----r-----r--|-----r----
e--------------|-----e-----e-----e-----e--|-----e-----e-----e-----e--|--5--e----
s--------0--2--|--3--s-----s--3--s--3--s--|--5--s-----s--5--s--5--s--|-----s----
t--3--3--------|-----t--3--t-----t-----t--|-----t--5--t-----t-----t--|-----t----

e e e e e e e e e e e e e e e e e e e e e e
---r-----r-----r--|-----r-----r-----r--------||------r-----r-----r-----r--------
5--e--4--e--5--e--|-----e-----e-----e--------||*--7--e-----e-----e-----e--------
---s-----s-----s--|--7--s-----s--7--s--7--5--||*-----s--7--s-----s--7--s--------
---t-----t-----t--|-----t--7--t-----t--------||------t-----t--5--t-----t--------

2x e e e e e e e e H q e e e e e e e e e e e
-||-----r-----r-----r--------|-----r--|-----r-----r-----r-----r--|-----r--------
*||-----e-----e-----e--7-----|-----e--|--7--e-----e-----e-----e--|-----e--------
*||--5--s-----s--5--s--------|--5--s--|-----s--7--s-----s-----s--|--5--s--------
-||-----t--5--t-----t-----5--|-----t--|-----t-----t--5--t--5--t--|-----t--5-----
Chorus

e e e e e e e e e e e e e e e e e e e e e e e
r-----r-----r--|-----r-----r-----r-----r--|-----r-----r-----r--------|-----r----
e-----e-----e--|--5--e--5--e--4--e--5--e--|-----e-----e-----e--------|-----e----
s--5--s--5--s--|-----s-----s-----s-----s--|--7--s-----s--7--s--7--5--|--3--s----
t-----t-----t--|-----t-----t-----t-----t--|-----t--7--t-----t--------|-----t----

e e e e e e e e e e e e e e e e e e e e e e w
---r-----r-----r--|-----r-----r-----r-----r--|-----r-----r-----r-----r--|-------
---e-----e-----e--|-----e-----e-----e-----e--|-----e-----e-----e-----e--|-------
---s--3--s--3--s--|--5--s-----s--5--s--5--s--|-----s-----s--2--s-----s--|-------
3--t-----t-----t--|-----t--5--t-----t-----t--|--3--t--3--t-----t--5--t--|--3----

e e e e e e e e e e e e e e e e e e e e e e e
|-----r-----r-----r-----r--|-----r-----r-----r-----r--|-----r-----r-----r-------
|--7--e-----e-----e-----e--|-----e-----e-----e-----e--|--5--e--5--e--4--e--5----
|-----s--7--s-----s-----s--|--5--s-----s--5--s--5--s--|-----s-----s-----s-------
|-----t-----t--5--t--5--t--|-----t--5--t-----t-----t--|-----t-----t-----t-------
Solo

e e e e e e e e e e e e e e e e e e e e e e e
r--|-----r-----r-----r--------|-----r-----r-----r-----r--|-----r-----r-----r----
e--|-----e-----e-----e--------|-----e-----e-----e-----e--|-----e-----e-----e----
s--|--7--s-----s--7--s--7--5--|--3--s-----s--3--s--3--s--|--5--s-----s--5--s----
t--|-----t--7--t-----t--------|-----t--3--t-----t-----t--|-----t--5--t-----t----

e e e e e e e e e e e e e e e e e e e e e e e
---r--|-----r-----r-----r-----r--|-----r-----r--------------|-----r-----r-------
---e--|-----e-----e-----e-----e--|-----e-----e--------------|-----e-----e-------
5--s--|-----s-----s--2--s-----s--|-----s--5--s--------0--2--|--3--s-----s--3----
---t--|--3--t--3--t-----t--5--t--|--3--t-----t--3--3--------|-----t--3--t-------

e e e e e e e e e e e e e e e e e e e e e e e
r-----r--|-----r-----r-----r-----r--|-----r-----r-----r-----r--|-----r-----r----
e-----e--|-----e-----e-----e-----e--|--5--e--5--e--4--e--5--e--|-----e-----e----
s--3--s--|--5--s-----s--5--s--5--s--|-----s-----s-----s-----s--|--7--s-----s----
t-----t--|-----t--5--t-----t-----t--|-----t-----t-----t-----t--|-----t--7--t----

e e e e e e e e e e e e 2x e e e e e e e e e
---r--------||------r-----r-----r-----r---||-----r-----r-----r-----r--|---------
---e--------||*-----e-----e-----e-----e--*||-----e-----e-----e-----e--|---------
7--s--7--5--||*-----s--7--s-----s--7--s--*||--5--s-----s--5--s-----s--|--5------
---t--------||---5--t-----t--5--t-----t---||-----t--5--t-----t--5--t--|---------

e e e q e e e e e e e e e e e e e e e e e e e
r-----r-----------|-----r-----r-----r-----r--|-----r-----r-----r-----r--|-------
e-----e-----------|-----e-----e-----e-----e--|-----e-----e-----e-----e--|--5----
s-----s--5--3--2--|-----s--7--s-----s-----s--|--5--s-----s--5--s--5--s--|-------
t--5--t-----------|--5--t-----t--5--t--5--t--|-----t--5--t-----t-----t--|-------

e e e e e e e e e e e e e e e e e e e e e e e
r-----r-----r-----r--|-----r-----r-----r--------|-----r-----r-----r-----r--|----
e--5--e--4--e--5--e--|-----e-----e-----e--------|-----e-----e-----e-----e--|----
s-----s-----s-----s--|--7--s-----s--7--s--7--5--|--3--s-----s--3--s--3--s--|----
t-----t-----t-----t--|-----t--7--t-----t--------|-----t--3--t-----t-----t--|----

e e e e e e e e e e e e e e e e H q e e e e e
---r-----r-----r-----r--|-----r-----r-----r-----r--|-----r--|-----r-----r-------
---e-----e-----e-----e--|-----e-----e-----e-----e--|-----e--|--7--e-----e-------
5--s-----s--5--s--5--s--|-----s-----s--2--s-----s--|-----s--|-----s--7--s-------
---t--5--t-----t-----t--|--3--t--3--t-----t--5--t--|--3--t--|-----t-----t--5----
Verse 2

e e e e e e e e e e e e e e e e e e e e e e e
r-----r--|-----r-----r-----r-----r--|-----r-----r-----r-----r--|-----r-----r----
e-----e--|-----e-----e-----e-----e--|--5--e--5--e--4--e--5--e--|-----e-----e----
s-----s--|--5--s-----s--5--s--5--s--|-----s-----s-----s-----s--|--7--s-----s----
t--5--t--|-----t--5--t-----t-----t--|-----t-----t-----t-----t--|-----t--7--t----

e e e e e e e e e e e e e e e e e e e e e e e
---r--------|-----r-----r-----r-----r--|-----r-----r-----r-----r--|-----r-------
---e--------|-----e-----e-----e-----e--|-----e-----e-----e-----e--|-----e-------
7--s--7--5--|--3--s-----s--3--s--3--s--|--5--s-----s--5--s--5--s--|-----s-------
---t--------|-----t--3--t-----t-----t--|-----t--5--t-----t-----t--|--3--t--3----

e e e e e e e e e e e e e e e e e e e e e e e
r-----r-----r--|-----r-----r--------------|-----r-----r-----r-----r--|-----r----
e-----e-----e--|-----e-----e--------------|-----e-----e-----e-----e--|-----e----
s--2--s-----s--|-----s--5--s--------0--2--|--3--s-----s--3--s--3--s--|--5--s----
t-----t--5--t--|--3--t-----t--3--3--------|-----t--3--t-----t-----t--|-----t----

e e e e e e e e e e e e e e e e e e e e e e e
---r-----r-----r--|-----r-----r-----r-----r--|-----r-----r-----r--------|-------
---e-----e-----e--|--5--e--5--e--4--e--5--e--|-----e-----e-----e--------|-------
---s--5--s--5--s--|-----s-----s-----s-----s--|--7--s-----s--7--s--7--5--|-------
5--t-----t-----t--|-----t-----t-----t-----t--|-----t--7--t-----t--------|--5----

e e e e e e e e e e e e e e e e e e e e e e e
r-----r-----r-----r--|-----r-----r-----r-----r--|-----r-----r-----r--------|----
e-----e-----e-----e--|-----e-----e-----e-----e--|-----e-----e-----e--7-----|----
s--7--s-----s--7--s--|-----s--7--s-----s-----s--|--5--s-----s--5--s--------|----
t-----t--5--t-----t--|--5--t-----t--5--t--5--t--|-----t--5--t-----t-----5--|----

H q e e e e e e e e e e e e e e e e e e e e e
---r--|-----r-----r-----r-----r--|-----r-----r-----r-----r--|-----r-----r-------
---e--|--7--e-----e-----e-----e--|-----e-----e-----e-----e--|--5--e--5--e--4----
5--s--|-----s--7--s-----s-----s--|--5--s-----s--5--s--5--s--|-----s-----s-------
---t--|-----t-----t--5--t--5--t--|-----t--5--t-----t-----t--|-----t-----t-------
Chorus

e e e e e e e e e e e e e e e e e e e e e e e
r-----r--|-----r-----r-----r--------|-----r-----r-----r-----r--|-----r-----r----
e--5--e--|-----e-----e-----e--------|-----e-----e-----e-----e--|-----e-----e----
s-----s--|--7--s-----s--7--s--7--5--|--3--s-----s--3--s--3--s--|--5--s-----s----
t-----t--|-----t--7--t-----t--------|-----t--3--t-----t-----t--|-----t--5--t----

e e e e e e e e e e e e e e e e e e e e e e e
---r-----r--|-----r-----r-----r-----r--|-----r-----r--------------|-----r-------
---e-----e--|-----e-----e-----e-----e--|-----e-----e--------------|-----e-------
5--s--5--s--|-----s-----s--2--s-----s--|-----s--5--s--------0--2--|--3--s-------
---t-----t--|--3--t--3--t-----t--5--t--|--3--t-----t--3--3--------|-----t--3----

e e e e e e e e e e e e e e e e e e e e e w w
r-----r-----r--|-----r-----r-----r-----r--|-----r-----r-----r-----r--|---|---||
e-----e-----e--|-----e-----e-----e-----e--|-----e-----e-----e-----e--|---|---||
s--3--s--3--s--|--5--s-----s--5--s--5--s--|-----s-----s--2--s-----s--|---|---||
t-----t-----t--|-----t--5--t-----t-----t--|--3--t--3--t-----t--5--t--|-3-|-3-||
-----
**Tabbed by Greg Staggs
Awesome Sound - Ween Guitar tabs (www.vaxxine.com/mtbhl/ween.htm)