POWDER BLUE - words and music by Ween
from the album "12 Golden Country Greats"

Powder Blue - by Ween

RIFF:

------------------------------------------------8----8-8--------------
-------------8----------------------
-------------------------------------8-10-8---------------11-10-8-----
-7-8---8--7-6--5-----------------
------------------------5---789---------------------------------------
-----8-9-------8-7--5-------------------
----------------575---------------------------------------------------
-----------------------------7--5----------------3---567--------------
----------------------------------------------------------------------
----------------------------------------------------------------------
-----------------------------------------------------------

G# G C G# G C
Powder blue, powder blue, what can you do? she?s powder blue
G# G C G# G C
Powder blue, powder blue, what can you do? she?s powder blue
Am C
I?ll be true, [bop bah] my powder blue, [powder blue]
Am G RIFF
it?s all for you , [bop bah] it?s all for you [and you know
it]

G# G C G# G C
Powder blue, powder blue, the seventh son of Orion with me too
G# G C G# G C
Powder blue, powder blue, how do you do? come walk with me now,
powder blue
Am C
Powder blue, [bop bah] powder blue, [powder blue]
Am G RIFF
it?s all for you , it?s all for you [and you can feel that ]

G# G C G# G C
Powder blue, oh powder blue, I got this feelin? powder blue
G# G C G# G C
Oh Powder blue, powder blue, it?s in my head for you
Am C
I?ll be true, [bop bah] my powder blue, [powder blue]
Am G RIFF, AD LIB
it?s all for you , [bop bah] it?s all for you

***Version 2*** by Kenneth Gorski (sydb@wam.umd.edu)

Intro riff:

------------------------------------------8-8-8------------------------
-5---------------------------8-10---------------11-10-8----------8-----
-5---------------9----7-8-9----------9---------------------7-8-9---9-7-5
-5--------5-7----10------------------10---------------------------------
-3--5-6-7--------10------------------10---------------------------------
-3---------------8-------------------8----------------------------------

G# G C
Powder Blue, Powder Blue
G# G C
What can you do? She's Powder Blue
G# G C
Powder Blue, Powder Blue
G# G C
What can you do? She's Powder Blue

Am C
I'll be true (bah - bah) my powder blue (powder blue)
Am G
It's all for you (bah - bah), it's all for you

(intro riff)

Powder Blue, Powder Blue
The seventh son of Orion, with him too
Oh Powder Blue, how do you do?
Come walk with me now, Powder Blue

Powder Blue (bah - bah), Powder Blue (Powder Blue)
It's all for you (bah - bah), it's all for you

(intro riff)

Powder Blue, Oh Powder Blue
I've got this feeling, Powder Blue
Oh Powder Blue, Powder Blue
It's in my head, for you

I'll be true (bah - bah), My Powder Blue
It's all for you (bah - bah), it's all for you

(intro riff)

Bobby Ogdin on the piano... thanks Bobby
Mr. Charlie McKoy on the harmonica .. oh Charlie
Russ Hicks, steel guitar
And ladies and gentlemen I'd like to present... Muhammad Ali

***Bass Tab*** by Geoffrey Dickens

I've found a few low Ebs and even a low C in the bass-line, but I'm not
going to make everyone tune down for a few bars, so it's all in standard
tuning with an '*' indicating where a lower note is usually played.
It's sounds fine to play along the way I've done it anyway.

q H 2x q e e e e q e e e e e e q Q e q
||------||------r---||--------------------|-----------------------|-------------
||--4:--||*-----e--*||--------------------|--------5--------------|-------------
||--4:--||*--3--s--*||--3--3--3--3--3--3--|--6--7-----7--6--5--3--|-------------
||------||------t---||--------------------|-----------------------|--4--4--4----
Intro Verse 1

e e Q e e e e e Q e Q e Q e e e e e Q e e
------|--------------------|--------------|--------------------||---------------
------|--------------------|--------------|--------------------||*--------------
6-----|--------------------|--3--3--------|--3--3--------5-----||*--------6-----
---4--|--3--3--3--3--3--3--|--------3--3--|--------3--3-----3--||---4--4--------
*
e e e Q e e e e e Q e e e e e Q e e e e e 3x
---------|--------------------|--------------------|---------------------||-----
---------|--------------------|--------------------|--------------------*||-----
6-----6--|--------------5-----|--3--3--------5-----|--3--3--------5-----*||-----
---4-----|--3--3--3--3-----3--|--------3--3-----3--|--------3--3-----3---||-----
* *
Q e e e e e 2x Q e Q e Q e e e e e Q e e e
||----------------------||--------------|--------------------||-----------------
||*--------------------*||--------------|--------------------||*----------------
||*--------------------*||--3--3--------|--3--3--------5-----||*----------------
||---5--5--0--0--5--0---||--------3--3--|--------3--3-----3--||---5--5--0--0----

e e 2x Q e q e e e e e e e e e e q H 2x q e e
-------||-----------------|--------------------------||------r---||-------------
------*||--------------3--|--5--5--3--3--2--2--------||*-----e--*||-------------
------*||--------5--5-----|--------------------5--5--||*--3--s--*||--3--3--3----
5--0---||--3--3-----------|--------------------------||------t---||-------------
Intro

e e q e e e e e e q Q e q e e Q e e e e e
---------|-----------------------|-----------------|--------------------||------
---------|--------5--------------|-----------------|--------------------||*-----
3--3--3--|--6--7-----7--6--5--3--|-----------6-----|--------------------||*-----
---------|-----------------------|--4--4--4-----4--|--3--3--3--3--3--3--||------
Verse 2

Q e e e e e 2x Q e e e e e Q e e e e e Q e
-------------------||--||---------------------|--------------------|------------
------------------*||--||*--------------------|--------------------|------------
3--3--------5-----*||--||*--------6--6-----6--|--------------------|--3--3------
------3--3-----3---||--||---4--4--------4-----|--3--3--3--3--3--3--|------------
* * *

Q e Q e Q e 2x Q e e e e e Q e e e e e Q e Q
------|---------------||--------------------|--------------------|--------------
------|--------------*||--------------------|--------------------|--------------
------|--3--3--------*||--------6--6-----6--|--------------------|--3--3--------
3--3--|--------3--3---||--4--4--------4-----|--3--3--3--3--3--3--|--------3-----
* * *

e Q e e e e e Q e e e e e 2x Q e Q e Q e e
---|--------------------||----------------------||--------------|---------------
---|--------------------||*--------------------*||--------------|---------------
---|--3--3--------5-----||*--------------------*||--3--3--------|--3--3---------
3--|--------3--3-----3--||---5--5--0--0--5--0---||--------3--3--|--------3------

e e e Q e e e e e 2x Q e Q e Q e e e e e
---------||----------------------||--------------|--------------------||--------
---------||*--------------------*||--------------|--------------------||*-------
---5-----||*--------------------*||--------5--5--|--------------------||*-------
3-----3--||---5--5--0--0--5--0---||--3--3--------|--3--3--3--3--3--3--||--------
* *

q H 2x q e e e e q e e e e e e q Q e h Q e e
---r---||--------------------|-----------------------|-----------|--------------
---e--*||--------------------|--------5--------------|-----------|--------------
3--s--*||--3--3--3--3--3--3--|--6--7-----7--6--5--3--|-----------|--------------
---t---||--------------------|-----------------------|--4--4--4--|--3--3--3-----
Intro Verse 3

e e e Q e e e e e 2x Q e e e e e Q e e e e
---------||----------------------||--||---------------------|-------------------
---------||*--------------------*||--||*--------------------|-------------------
---------||*--3--3--------3-----*||--||*--------6--6-----6--|--------------5----
3--3--3--||---------3--3-----3---||--||---4--4--------4-----|--3--3--3--3-------
* * *

e Q e e e e Q e e e e e 3x Q e e e e e Q e
---|--------------------|---------------------||--------------------|-----------
---|--------------------|--------------------*||--------------------|-----------
---|--3--3--------------|--3--3--------5-----*||--------------------|-----------
3--|--------3--3--x--3--|--------3--3-----3---||--5--5--0--0--5--0--|--5--5-----

e e e e Q e Q e Q e e e e e Q e e e e e 2x
------------|--------------|--------------------||----------------------||------
------------|--------------|--------------------||*--------------------*||------
------------|--3--3--------|--3--3--3-----------||*--------------------*||------
5--3--0--3--|--------3--3--|-----------3--1--3--||---5--5--0--0--5--0---||------
* *

Q e Q e Q e e e e e q H 2x q e e e e q e e
------------|--------------------||------r---||--------------------|------------
------------|--------------------||*-----e--*||--------------------|------------
------5--5--|--------------2--2--||*--3--s--*||--3--3--3--3--3--3--|--6--7------
3--3--------|--3--3--5--5--------||------t---||--------------------|------------
* * Intro

e e e e q Q e q e q Q e e e e e Q e e e e e
---------------|-----------------|--------------------|--------------------|----
5--------------|-----------------|--------------------|--------------------|----
---7--6--5--3--|-----------6-----|--------------------|--3--3--3-----------|----
---------------|--4--4--4-----4--|--3--3--3--3--0--3--|-----------1--3--5--|----
Solos - Bobby Ogdin * * *

Q e e e e e Q e q e q Q e e e e e Q e e e e
------------------|-----------------|--------------------||---------------------
------------------|-----------------|--------------------||*--------------------
3--3--------3-----|-----------6-----|-----------------2--||*--3--3--------3-----
------3--3-----3--|--4--4--4-----4--|--3--3--3--3--5-----||---------3--3--------

e 2x Q e e e e e Q e e e e e Q e e e e e 2x Q
----||--------------------|--------------------||----------------------||-------
---*||--------------------|--------------------||*--------------------*||-------
---*||--------6--6-----6--|--------------------||*--3--3--------3-----*||-------
3---||--4--4--------4-----|--3--3--3--3--3--3--||---------3--3-----3---||--4----
Charli* M*Coy *

e e e e e Q e e e q Q e Q e Q e e e e e
---------------|----------------|--------------|--------------------||----------
---------------|----------------|--------------|--------------------||*---------
---6--6-----6--|----------------|--3--3--------|--3--3-----3-----3--||*---------
4--------4-----|--3--3--3--3--3\|--------3--3--|--------3-----5-----||----------
* * * * *

Q e e e e e 2x Q e Q e Q e e e e e Q e e e e
-------------------||--------------|--------------------||----------------------
------------------*||--------------|--------------------||*---------------------
------------------*||--3--3--------|--3--3--3-----------||*---------------------
5--5--0--0--5--0---||--------3--3--|-----------3--1--3--||---5--5--0--0--5------
Russ Hicks * *

e 2x Q e e e e e e e e e e e e e q H 2x q e e
----||--------------------|--------------------------||------r---||-------------
---*||--------------3--4--|--5--5--3-----------------||*-----e--*||-------------
---*||--------5--5--------|-----------5--------3-----||*--3--s--*||--3--3--3----
0---||--3--3--------------|--------------3--3-----3--||------t---||-------------

e e q e e e e e e q
---------|-----------------------||---------------------------------------------
---------|--------5--------------||---------------------------------------------
3--3--3--|--6--7-----7--6--5--3--||---------------------------------------------
---------|-----------------------||---------------------------------------------
Mohammed Ali

**Tabbed by Greg Staggs
Awesome Sound - Ween Guitar tabs (www.vaxxine.com/mtbhl/ween.htm)