JAPANESE COWBOY - words and music by Ween
from the album "12 Golden Country Greats"

I had to reformat this, i hope it's right.

Japanese Cowboy - by Ween

INRO: [G...G...C...{C.F.} ]

{C F} C F C F
Like a Japanese cowboy --- or a brother on skates
C F G
Like a blizzard in Georgia --- or a train running late
F C F C F
I call out your name girl --- in the heat of the night
C G C
and nobody answers --- cause something ain?t right

F C F C F
Breakfast at Shoney?s --- at two ninety-nine
C F G
Saved me some money --- and eased up my mind
F C F C F
I?m walking in circles --- and feeling the pain
C F G
I?m tossing and turning --- And crying in vain

F C F C F
Like a Japanese cowboy --- or a brother on skates
C F G
Like a blizzard in Georgia --- or a train running late
F C F C F
I call out your name girl --- in the heat of the night
C G C
and nobody answers --- cause something ain?t right

[ JAM: C...C...F...F...G...G...C...C.F. ]

{C F} C F C F
I'm riding at midnight --- and crossing the line
C F G
From the rain In my windshield --- and the tears in my eyes
F C F C F
Now the bedroom is empty --- and I spent my last dime
C F G F
And the lovers are leaving --- I got nothing but time,
G
I got you on my mind

F C F C F
Like a Japanese cowboy --- or a brother on skates
C F G
Like a blizzard in Georgia --- or a train running late
F C F C F
I call out your name girl --- in the heat of the night
C G C
and nobody answers --- cause something ain?t right

***Bass Tab*** by Geoffrey Dickens

q q q q q q q q q q q q q q h
||------|--------------|--------------|--------------|-----------|------
||--4:--|--5-----5-----|--5-----5--5--|--------------|--------3--|------
||--4:--|-----5-----5--|-----5--------|--3-----3-----|--3--------|------
||------|--------------|--------------|-----3-----3--|-----3-----|------
Intro

q q q q q q q q q q q q q q q q q q q
------------|--------------|--------------|--------------|--------------
------------|--------------|--------------|--------------|--------------
3-----3--3--|-----3--------|--3-----3--3--|-----3--------|--3-----3-----
---3--------|--1-----1--1--|-----3--------|--1-----1--1--|-----3--------
Chorus

q q q q q q q q q q q q q q q q q q
---|--------------|--------------|--------------|--------------|--------
---|--------------|--------------|--------------|--------------|--------
3--|-----3--------|-----5-----5--|--------------|--3-----3--3--|--------
---|--1-----1--1--|--3-----3-----|--3--3--1--1--|-----3--------|--1-----

q q q q q q q q q q q q q q e e q q q
---------|--------------|--------------|-----------------|--------------
---------|--------------|--------------|-----------------|--------------
3--------|--3-----3--3--|-----3--------|--3-----3--2-----|-----5--------
---1--1--|-----3--------|--1-----1--1--|-----3--------5--|--3-----3-----

q q q q q q q q q q q q q q q q q
---|--------------|--------------||---------------|--------------|------
---|--------------|--------3--3--||*--------------|--------------|------
---|--3-----3-----|--3--3--------||*--3-----3--3--|-----3--------|------
3--|-----3-----3--|--------------||------3--------|--1-----1--1--|------
Verse I

q q q q q q q q q q q q q q q q q q q
------------|--------------|--------------|--------------|--------------
------------|--------------|--------------|--------------|--------------
3-----3--3--|-----3--------|--3-----3--3--|-----3--------|-----5--------
---3--------|--1-----1--1--|-----3--------|--1-----1--1--|--3-----3-----

q q q q q 2x q q q q q q q q q q q q
---|---------------||--------------|--------------|--------------|------
---|--------------*||--------------|--------------|--------------|------
5--|--------------*||--3-----3--3--|-----3--------|--3-----3--3--|------
---|--3--3--1--1---||-----3--------|--1-----1--1--|-----3--------|------
Chorus

q q q q q q q q q q q q q q q q q q q
------------|--------------|--------------|--------------|--------------
------------|--------------|--------------|--------------|--------------
---3--------|--3-----3--3--|-----3--------|-----5-----5--|--------------
1-----1--1--|-----3--------|--1-----1--1--|--3-----3-----|--3--3--1-----

q q q q q q q q q q q q q q q q q q
---|--------------|--------------|--------------|--------------|--------
---|--------------|--------------|--------------|--------------|--------
---|--3-----3--3--|-----3--------|--3-----3--3--|-----3--------|--3-----
1--|-----3--------|--1-----1--1--|-----3--------|--1-----1--1--|--------

q q e e q q q q q q q q q q e e e e
------------|--------------|--------------|--------------------|--------
------------|--------------|--------------|--------------------|--------
---3--2-----|-----5--------|--3-----3-----|--3-----3-----0--2--|--------
3--------5--|--3-----3--3--|-----3-----3--|-----3-----3--------|--------

q q q q q q e e e e q q q q q q q q q
------------|--------------------|--------------|--------------|--------
------------|--------------0--2--|--3-----3-----|--3-----3--3--|--5-----
3-----3-----|--3-----3--3--------|-----3-----3--|-----3--------|--------
---3-----3--|-----3--------------|--------------|--------------|--------
Solo

q q q q q q q q q q q q q h q q q q
---------|--------------|--------------|-----------||-------------------
---5-----|--5-----5-----|--------------|--------3--||*------------------
5-----5--|-----5--------|--3-----3-----|--3--3-----||*--3-----3--3------
---------|-----------3--|-----3-----3--|-----------||------3------------
Verse II

q q q q q q q q q q q q q q q q q q
|--------------|--------------|--------------|--------------|-----------
|--3-----3--3--|--------------|--3-----3--3--|--------------|--3--------
|-----3--------|--3-----3--3--|-----3--------|--3-----3--3--|-----3-----
|--------------|-----3--------|--------------|-----3--------|-----------

q q q q q q q q q q q q q q q q q q
------|--------------|--------------|--------------|--------------|-----
3--3--|--5-----5-----|--5--5--3--3--|--------------|--3-----3--3--|-----
------|-----5-----5--|--------------|--3-----3--3--|-----3--------|-----
------|--------------|--------------|-----3--------|--------------|-----

q q q q q q q q q q q q q q q q q q q
------------|--------------|--------------|--------------|--------------
------------|--3-----3--3--|--------------|--3-----3--3--|--5-----5-----
3-----3--3--|-----3--------|--3-----3--3--|-----3--------|-----5--------
---3--------|--------------|-----3--------|--------------|--------------

q q q q q q q q q q q h q q q q q q
---|--------------|--------------|-----------|--------------|-----------
5--|--3-----3--3--|--5-----5-----|--5-----3--|--------------|-----------
---|-----3--------|-----5-----5--|-----5-----|--3-----3--3--|-----3-----
---|--------------|--------------|-----------|-----3--------|--1--------
Chorus

q q q q q q q q q q q q q q q q q e e
------|--------------|--------------|--------------|--------------------
------|--------------|--------------|--------------|--------------------
------|--3-----3--3--|-----3--------|--3-----3--3--|-----3--------------
1--1--|-----3--------|--1-----1--1--|-----3--------|--1-----1--1--2-----

q q q q q q q e e q q q q q q q q q
|--------------|-----------------|--------------|--------------|--------
|--------------|-----------------|--------------|--------------|--------
|-----5-----5--|--------------2--|--3-----3--3--|-----3--------|--3-----
|--3-----3-----|--3--3--1--1-----|-----3--------|--1-----1--1--|--------

q q q q q q q q q q e e q q q q q q q
---------|--------------|-----------------|--------------|--------------
---------|--------------|-----------------|--------------|--------------
---3--3--|-----3--------|--3-----3--2-----|-----5--------|--3-----3-----
3--------|--1-----1--1--|-----3--------5--|--3-----3--3--|-----3--------

q q q h
---|-----------||-------------------------------------------------------
---|-----------||-------------------------------------------------------
---|--3-----3--||-------------------------------------------------------
3--|-----3-----||-------------------------------------------------------

**Tabbed by Greg Staggs
Awesome Sound - Ween Guitar tabs (www.vaxxine.com/mtbhl/ween.htm)