WHAT DEANER WAS TALKIN' ABOUT - words and music by Ween
**from the album "Chocolate and Cheese"

Riff 1 Riff 2

E |===========3= =========3=
B |===========0= =========0=
G |===========0= =========0=
D |===========0= =========0=
A |===0=2=0=2=2= =3=3=2=0=2=
E |=3=========3= =========3=

What Deaner Was Talkin' About

(riff 1) G D
The wash is out, it's hanging up
C G
And all I have is nothing
G D
Nothing to do, nothing to say
C G
I think I must be dreaming

Em G
The sun comes up and I'm all washed out
Em A
Is this what Deaner was talkin' about
G D C (riff 2)
I don't think I will ever return again my friend

(riff 1) G D
If I was king, I'd wear a ring
C G
And never hurt my people
G D
I'd stay alert, and dress to kill
C G
I might even slip you something

Em G
The sun comes up and I'm all washed out
Em A
Is this what Deaner was talkin' about
G D C (riff 2)
I don't think I will ever return again my friend

(riff 1)

Solo (play twice)

E |==============================10=10=10=12=10======================
B |====10=12=10=12==12=====10=12================13=13=13=12=10=12=12=
G |=12==================12===========================================
D |==================================================================
A |==================================================================
E |==================================================================

Em G
The sun comes up and I'm all washed out
Em A
Is this what Deaner was talkin' about
G D C (riff 2)
I don't think I will ever return again my friend
(riff 1) G D C (riff 2)
I do not think I will ever return again my friend
(riff 1) G D C (riff 2) G
I do not think I will ever return again my friend

***Bass Tab*** by Geoffrey Dickens

h e e e e h e e e e h e e e e Q
||------||--r--r-----------|-----r-----------|--------------7--|-------
||--4:--||--e--e-----------|-----e-----------|-----------7-----|-------
||--4:--||--s--s-----------|-----s-----------|--5--5--5--------|--3----
||------||--t--t--0--3--0--|--3--t--0--3--0--|-----------------|-------
Verse1

e e e e e h e e e e h e e e e h e e e e
---------------|-----r-----------|-----r-----------|--------------7-----
---------------|-----e-----------|-----e-----------|-----------7--------
3--3--3--3--5--|-----s-----------|-----s-----------|--5--5--5-----------
---------------|--3--t--0--3--0--|--3--t--0--3--0--|--------------------

Q e e e e e Q e q q Q e e e e e Q e q
|--------------------|--------------|--------------------|--------------
|--------------------|--------------|--------------------|--------------
|--3--3--3--3--3--5--|--------------|--------------------|--------------
|--------------------|--3--3--3--2--|--0--0--0--0--3--0--|--3--3--3-----
Chorus

q Q e e e e e Q e e e q h e e e e h e
---|--------------------|-----------------|-----r-----------|-----------
---|--------------------|-----------------|-----e-----------|-----------
---|--------------------|-----------------|-----s-----------|--5--5-----
2--|--0--0--0--0--3--0--|--5--5--5--5--5--|--3--t--0--3--0--|-----------

e e e h e e e e h e e e e x2 h e e e e Q
------7--|-----------------|------r------------|--------------7--|--------
---7-----|-----------------|*-----e-----------*|-----------7-----|--------
5--------|--3--3--3--2--0--|*-----s-----------*|--5--5--5--------|--3-----
---------|-----------------|--3---t--0--3--0---|-----------------|--------

e e e e e h e e e e h e e e e h e e e e
---------------|-----r-----------|-----r-----------|--------------7-----
---------------|-----e-----------|-----e-----------|-----------7--------
3--3--3--3--5--|-----s-----------|-----s-----------|--5--5--5-----------
---------------|--3--t--0--3--0--|--3--t--0--3--0--|--------------------

Q e e e e e Q e q q Q e e e e e Q e q
|--------------------|--------------|--------------------|--------------
|--------------------|--------------|--------------------|--------------
|--3--3--3--3--3--5--|--------------|--------------------|--------------
|--------------------|--3--3--3--2--|--0--0--0--0--3--0--|--3--3--3-----
Chorus

q Q e e e e e Q e e e q h e e e e h e
---|--------------------|-----------------|-----r-----------|-----------
---|--------------------|-----------------|-----e-----------|-----------
---|--------------------|-----------------|-----s-----------|--5--5-----
2--|--0--0--0--0--3--0--|--5--5--5--5--5--|--3--t--0--3--0--|-----------

e e e h e e e e h e e e e h e e e e h
------7--|-----------------|-----r-----------|-----r-----------|--------
---7-----|-----------------|-----e-----------|-----e-----------|--------
5--------|--3--3--3--2--0--|-----s-----------|-----s-----------|--5-----
---------|-----------------|--3--t--0--3--0--|--3--t--0--3--0--|--------
Solo

e e e e Q e e e e e h e e e e h e e e e
------------|--------------------|-----r-----------|-----r--------------
------------|--------------------|-----e-----------|-----e--------------
0--5--0--5--|--3--3--3--3--3--5--|-----s-----------|-----s--------------
------------|--------------------|--3--t--0--3--0--|--3--t--0--3--0-----

h e e e e Q e e e e e Q e q q Q e e e
|-----------------|--------------------|--------------|-----------------
|-----------------|--------------------|--------------|-----------------
|--5--0--5--0--5--|--3--3--3--3--3--5--|--------------|-----------------
|-----------------|--------------------|--3--3--3--2--|--0--0--0--0-----
Chorus

e e Q e q q Q e e e e e Q e e e q h
------|--------------|--------------------|-----------------||----------
------|--------------|--------------------|-----------------||*---------
------|--------------|--------------------|-----------------||*---------
3--0--|--3--3--3--2--|--0--0--0--0--3--0--|--5--5--5--5--5--||---3------
Outro

e e e e h e e e e h e e e e h e e e e
r-----------|-----------------|-----------------|-----r-----------------
e-----------|-----------------|-----------------|-----e-----------------
s-----------|--5--0--5--0--5--|--3--3--3--2--0--|-----s-----------------
t--0--3--0--|-----------------|-----------------|--3--t--0--3--0--------

2x h e e e e h e e e e h q q q H
-||-----r-----------|-----------------|-----------|--------||-----------
*||-----e-----------|-----------------|-----------|--------||-----------
*||-----s-----------|--5--0--5--0--5--|--3--3--2--|--0-----||-----------
-||--3--t--0--3--0--|-----------------|-----------|-----3--||-----------
Free time, ring out

**Tabbed by Jerm and Todd
Awesome Sound - Ween Guitar tabs (www.vaxxine.com/mtbhl/ween.htm)