THE HIV SONG - words and music by Ween
**from the album "Chocolate and Cheese"

The HIV Song was posted on OLGA eons ago, and I've simply added another
guitar part to it. Gener plays the notes of the melody, while Deaner plays
the background rythm guitar.

The HIV Song - by Ween

Guitar one Break

E |=7=7=========7=6=4=2==3=3==3=2=2=2============== ==================
B |=====4=7=4=7=======================0=2=0=2=0=4== ==================
G |================================================ ==================
D |================================================ ==================
A |================================================ ===9=8=7==========
E |================================================ =7=======7=0=1=2==

Guitar two

123+123+123+123+123+123+123+123+
| |
| B B B B G F# C# D# |
| |

AIDS

HIV

***Version 2***

a (slightly) different take...from what i've seen live.

E |=7=7=========7=6=44=22==2=3=3==3=2=2=2====================
B |=====4=7=4=7===========================0=2(b)=0=2(b)=0=4==
G |==========================================================
D |==========================================================
A |==========================================================
E |==========================================================

(b) -bend optional...i guess

Break

E |==================
B |==================
G |==================
D |===3=2=0==========
A |=2=======2========
E |===========0=1=2==

enjoy!

**Tabbed by slave1

***Bass Tab*** by Geoffrey Dickens

h q q q q q q q q q q q q
|------|--r--|------|--4--r-----r--|--4--r-----r--|--4--r-----r--|------
|--2:--|--e--|--4:--|-----e--4--e--|-----e--4--e--|-----e--4--e--|------
|--4:--|--s--|--4:--|-----s-----s--|-----s-----s--|-----s-----s--|------
|------|--t--|------|-----t-----t--|-----t-----t--|-----t-----t--|------
Aids Verse

q q q q q q q q q q q q q q q q H q
4--4--3--2--|-----r--7--|-----r--6--r--|--------------|-----r--|--4-----
------------|--5--e-----|--4--e-----e--|-----6--7-----|-----e--|--------
------------|-----s-----|-----s-----s--|--7--------0--|--2--s--|--------
------------|-----t-----|-----t-----t--|--------------|-----t--|--------

q q q q q q q q q q q q q q q q q q
r-----r--|--4--r-----r--|--4--r-----r--|--4--4--3--2--|-----r--7--|-----
e--4--e--|-----e--4--e--|-----e--4--e--|--------------|--5--e-----|-----
s-----s--|-----s-----s--|-----s-----s--|--------------|-----s-----|-----
t-----t--|-----t-----t--|-----t-----t--|--------------|-----t-----|-----

q q q q q q q q w q q q q q q q q q
---r--6--r--|--------------|--r--|--4--r-----r--|--4--r-----r--|--4-----
4--e-----e--|-----6--7-----|--e--|-----e--4--e--|-----e--4--e--|--------
---s-----s--|--7--------0--|--s--|-----s-----s--|-----s-----s--|--------
---t-----t--|--------------|--t--|-----t-----t--|-----t-----t--|--------

q q q q q q q q q q q q q q q q q q
r-----r--|--4--4--3--2--|-----r--7--|-----r--6--r--|--------------|-----
e--4--e--|--------------|--5--e-----|--4--e-----e--|-----6--7-----|-----
s-----s--|--------------|-----s-----|-----s-----s--|--7--------0--|-----
t-----t--|--------------|-----t-----|-----t-----t--|--------------|-----

q H q q q q q q q q q q q q q q q q
---r--|--4--r-----r--|--4--r-----r--|--4--r-----r--|--4--4--3--2--|-----
---e--|-----e--4--e--|-----e--4--e--|-----e--4--e--|--------------|-----
2--s--|-----s-----s--|-----s-----s--|-----s-----s--|--------------|-----
---t--|-----t-----t--|-----t-----t--|-----t-----t--|--------------|-----

q q q q q q q q q q q q q q q q q q
---r--7--|-----r--6--r--|--------------|--------------||----------------
5--e-----|--4--e-----e--|-----6--7--9--|--------------||*-----3--2------
---s-----|-----s-----s--|--7-----------|--------0--1--||*--2------------
---t-----|-----t-----t--|--------------|--0--4--------||----------------
Chorus

q q q q q 7x q q q q q H q q q q q q
---|---------------||--------------|-----r--||--4--r-----r--|--4--r-----
0--|--------------*||-----3--2--0--|-----e--||-----e--4--e--|-----e-----
---|--2-----------*||--2-----------|--2--s--||-----s-----s--|-----s-----
---|-----0--1--2---||--------------|-----t--||-----t-----t--|-----t-----
Verse

q q q q q q q q q q q q q q q q q q
---r--|--4--r-----r--|--4--4--3--2--|-----r--7--|-----r--6--r--|--------
4--e--|-----e--4--e--|--------------|--5--e-----|--4--e-----e--|--------
---s--|-----s-----s--|--------------|-----s-----|-----s-----s--|--7-----
---t--|-----t-----t--|--------------|-----t-----|-----t-----t--|--------

q q q w q q q q q q q q q q q q q
---------|--r--||---4--r-----r--|--4--r-----r--|--4--r-----r--|--4------
6--7-----|--e--||*-----e--4--e--|-----e--4--e--|-----e--4--e--|---------
------0--|--s--||*-----s-----s--|-----s-----s--|-----s-----s--|---------
---------|--t--||------t-----t--|-----t-----t--|-----t-----t--|---------

q q q q q q q q q q q q q q q H 2x q
4--3--2--|-----r--7--|-----r--6--r--|--------------|-----r---||--4------
---------|--5--e-----|--4--e-----e--|-----6--7-----|-----e--*||---------
---------|-----s-----|-----s-----s--|--7--------0--|--2--s--*||---------
---------|-----t-----|-----t-----t--|--------------|-----t---||---------

q q q q q q q q q q q q q q q q q q
r-----r--|--4--r-----r--|--4--r-----r--|--4--4--3--2--|-----r--7--|-----
e--4--e--|-----e--4--e--|-----e--4--e--|--------------|--5--e-----|-----
s-----s--|-----s-----s--|-----s-----s--|--------------|-----s-----|-----
t-----t--|-----t-----t--|-----t-----t--|--------------|-----t-----|-----

q q q q q q q q q q q q q q q q q q
---r--6--r--|--------------|--------------||---------------|------------
4--e-----e--|-----6--7--9--|--------------||*-----3--2--0--|------------
---s-----s--|--7-----------|--------0--1--||*--2-----------|--2---------
---t-----t--|--------------|--0--4--------||---------------|-----0------
Chorus

q q 7x q q q q w
-------||--------------|--r--||-----------------------------------------
------*||-----3--2--0--|--e--||-----------------------------------------
------*||--2-----------|--s--||-----------------------------------------
1--2---||--------------|--t--||-----------------------------------------
H.I.V.

**Tabbed by Jerm and Todd
Awesome Sound - Ween Guitar tabs (www.vaxxine.com/mtbhl/ween.htm)