BUENAS TARDIS AMIGO - words and music by Ween
*from the album "Chocolate and Cheese"

A sad little mexican ballad, which will touch all of those around you.
Gener never sounded so sensitive methinks. It follows the same pattern
throughout the song dudes so go nuts on it.

Buenas Tardes Amigo - by Ween

Am G Am
Buenas tardes amigo
Am G Am
Hola, my good friend
Am G Dm
Cinco de Mayo's on Tuesday
Am G Am
And I hoped we'd see each other again
Am G Am
You killed my brother last winter
Am G Am
You shot him three times in the back
Am G Dm
In the night I still hear mama weeping
Am G Am
Oh mama, still dresses in black

I looked at every fiesta
For you I wanted to greet
Maybe I'd sell you a chicken
With poison interlaced with the meat

You...you look like my brother
Mama loved him the best
He was head honcho with the ladies
Mama always said he was blessed

The village all gathered around him
They couldn't believe what they saw
I said it was you that had killed him
And that I'd find you and upstand the law

The people of the village believed me
Mama...she wanted revenge
I told her that I'd see that she was honored
I'd find you and put you to death

solo (play twice)

E |==================================================8=7=5==3=7=5==
B |===========================================3=3=5================
G |=======================================5=5======================
D |================================================================
A |===============2=0================2=0===========================
E |=8=7=5==7=5=3=======8=7=5==7=5=3================================

***solo version 2***

i was watching a vid from Knoxville 2000 and realized this is the way Deaner
actually plays the solo (pretty much the same notes just different)...plus
i included the extra little bit he throws in live.

(play twice)

E |=========================================================8=7=5==3=7=5==
B |=======================================================================
G |=========================================5==5=7==5=7=9=================
D |=======================================================================
A |=3=2=0==2=0====2=0====3=2=0==2=0====2=0================================
E |============3====================3=====================================

enjoy!

**Tabbed by slave1

So now...now that I've found you
On this such a joyous day
I tell you it was me who killed him
But the truth I'll never have to say

Buenas tardes amigo
Hola, my good friend
Cinca de Mayo's on Tuesday
And I hoped we'd see each other again
Yes, I hoped we'd see each other again

***Bass Tab*** by Geoffrey Dickens

H 32x h q H h q h q H H
||------||---r---||--||---------|-----|--------|--------|-----|---------
||--3:--||*--e--*||--||*--------|-----|--------|--------|-----|---------
||--4:--||*--s--*||--||*--------|--7--|--------|--5-----|-----|--7------
||------||---t---||--||---5--5--|-----|--3--3--|-----3--|--5--|---------
Verse 1 Verse 2
Two guitars Bass, third guitar in

H q q q 2x H H H q q q H H H
|-----|------------||-----|-----|-----|-----------|-----|-----|---------
|-----|-----------*||-----|-----|--5--|--5--------|-----|--7--|---------
|-----|--7--------*||-----|--7--|-----|-----8--7--|--5--|-----|--5------
|--5--|-----0--3---||--5--|-----|-----|-----------|-----|-----|---------

q q q H H H q q q H H H q q
|-----------|-----|-----|-----|-----------|-----|-----|-----|-----------
|--7--------|-----|-----|-----|-----------|-----|-----|-----|-----------
|-----5--3--|-----|--7--|-----|--7--------|-----|--7--|-----|--7--------
|-----------|--5--|-----|--3--|-----0--3--|--5--|-----|--5--|-----0-----

q h q 3 h q H q q q H H H q q
---||---------|--------|-----|-----------|-----|-----|-----|------------
---||*--------|--------|-----|-----------|-----|-----|-----|------------
---||*--------|--7-----|-----|--5--------|-----|--7--|-----|--7---------
3--||---5--5--|-----0--|--3--|-----0--3--|--5--|-----|--5--|-----0------
Verse 3

q 2x H H H q q q H H H q q q
----||-----|-----|-----|-----------|-----|-----|-----|-----------|------
---*||-----|-----|--5--|--5--------|-----|--7--|-----|-----------|------
---*||-----|--7--|-----|-----8--7--|--5--|-----|--5--|--5--3--2--|------
3---||--5--|-----|-----|-----------|-----|-----|-----|-----------|------

H H H q q q H H H q q q
---|-----|-----|-----------|-----|-----|-----|-----------||-------------
---|-----|-----|-----------|-----|-----|-----|-----------||*------------
---|--7--|-----|--7--------|-----|--7--|-----|--7--------||*------------
5--|-----|--3--|-----0--3--|--5--|-----|--5--|-----0--3--||-------------

H H H q q q H H H q q q 2x H
---|-----|-----|-----------|-----|-----|-----|------------||-----|------
---|-----|-----|-----------|-----|-----|-----|-----------*||-----|------
---|--7--|-----|--5--------|-----|--7--|-----|--7--------*||-----|------
5--|-----|--3--|-----0--3--|--5--|-----|--5--|-----0--3---||--5--|------
Verse 4
Percussion in

H H q q q H H H q q q H H H
---|-----|-----------|-----|-----|-----|-----------|-----|-----|--------
---|--5--|--5--------|-----|--7--|-----|-----------|-----|-----|--------
7--|-----|-----8--7--|--5--|-----|--5--|--5--3--2--|-----|--7--|--------
---|-----|-----------|-----|-----|-----|-----------|--5--|-----|--3-----

q q q H H H q q q H H H q
|-----------|-----|-----|-----|-----------||------|-----|-----|---------
|-----------|-----|-----|-----|-----------||*-----|-----|-----|---------
|--7--------|-----|--7--|-----|--7--------||*-----|--7--|-----|--5------
|-----0--3--|--5--|-----|--5--|-----0--3--||---5--|-----|--3--|---------
Verse 5
Organ in

q q h q H h q q q q 2x H H H q
------|--------|-----|--------|------------||-----|-----|-----|---------
------|--------|-----|--------|-----------*||-----|-----|-----|---------
------|--------|--7--|--------|--7--------*||-----|--7--|-----|---------
0--3--|--5--5--|-----|--5--5--|-----0--3---||--5--|-----|--3--|--3------

q q h q H H q q q H q q q H q
------|--------|-----|-----|-----------|-----|-----------|-----|--------
3--2--|--------|--7--|-----|-----------|-----|-----------|-----|--------
------|--5--5--|-----|--5--|--5--3--2--|-----|--7--------|-----|--7-----
------|--------|-----|-----|-----------|--5--|-----0--3--|--3--|--------

q q H H H q q q H H H q q q
------|-----|-----|-----|-----------||------|-----|-----|---------------
------|-----|-----|-----|-----------||*-----|-----|-----|---------------
------|-----|--7--|-----|--7--------||*-----|--7--|-----|--5------------
0--3--|--5--|-----|--5--|-----0--3--||---5--|-----|--3--|-----0--3------
Verse 6
h q H h q q q q 2x H H H q q q
|--------|-----|--------|------------||-----|-----|-----|---------------
|--------|-----|--------|-----------*||-----|-----|-----|-----3--2------
|--------|--7--|--------|--7--------*||-----|--7--|-----|---------------
|--5--5--|-----|--5--5--|-----0--3---||--5--|-----|--3--|--3------------

h q H H q q q H q q q H q q q
|--------|-----|-----|-----------|-----|-----------|-----|--------------
|--------|--7--|-----|-----------|-----|-----------|-----|--------------
|--5--5--|-----|--5--|--5--3--2--|-----|--7--------|-----|--7-----------
|--------|-----|-----|-----------|--5--|-----0--2--|--3--|-----0--3-----

h q H H q q q H H H q q q
|--------|-----|-----|-----------||------|-----|-----|-----------|------
|--------|-----|-----|-----------||*-----|-----|-----|-----------|------
|--------|--7--|-----|--7--------||*-----|--7--|-----|--5--------|------
|--5--5--|-----|--5--|-----0--3--||---5--|-----|--3--|-----0--3--|------
Solo
Fourth guitar, handclaps in
Organ, third guitar out

H H h q q q q H H H q q q H
---|-----|--------|-----------|-----|-----|-----|-----------|-----|-----
---|-----|--------|-----------|-----|-----|-----|-----------|-----|-----
---|--7--|--------|--7--------|-----|--7--|-----|--5--------|-----|-----
5--|-----|--5--5--|-----0--3--|--5--|-----|--3--|-----0--3--|--5--|-----
2nd time, organ in

H h q q q q H H H H h q H H
---|--------|-----------|-----|-----|-----|-----|--------|-----|--------
---|--------|-----------|-----|-----|-----|-----|--------|--7--|--------
7--|--------|--7--------|-----|--7--|-----|--5--|--5--5--|-----|--5-----
---|--5--5--|-----0--3--|--5--|-----|--3--|-----|--------|-----|--------

q q q H H H q q q H H H q q
|-----------|-----|-----|-----|-----------|-----|-----|-----|-----------
|-----------|-----|-----|-----|-----------|-----|-----|-----|-----------
|--5--3--2--|-----|--7--|-----|--7--------|-----|--7--|-----|--7--------
|-----------|--5--|-----|--3--|-----0--3--|--5--|-----|--5--|-----0-----

q 2x H H h q q q q H H H q q q
----||-----|-----|--------|-----------|-----|-----|-----|---------------
---*||-----|-----|--------|-----------|-----|-----|-----|---------------
---*||-----|--7--|--------|--5--------|-----|--7--|-----|--7------------
3---||--5--|-----|--3--3--|-----0--3--|--5--|-----|--5--|-----0--3------
Verse 7
Fourth guitar, handclaps, organ, percussion out
Third guitar in

H H h q q q q h q h q h q H
|-----|-----|--------|-----------|--------|--------|--------|-----|-----
|-----|-----|--------|-----------|--------|--------|--------|-----|-----
|-----|--7--|--------|--5--------|--------|--7--7--|--------|--7--|-----
|--5--|-----|--3--3--|-----0--3--|--5--5--|--------|--5--5--|-----|-----

H H H q q q H H H q q q H H
---|-----|-----|-----------|-----|-----|-----|-----------|-----|--------
---|-----|--5--|--5--------|-----|--7--|-----|-----------|-----|--------
---|--7--|-----|-----8--7--|--5--|-----|--5--|--5--3--2--|-----|--7-----
5--|-----|-----|-----------|-----|-----|-----|-----------|--5--|--------

h q q q q H H H q q q H 48x
|--------|-----------|-----|-----|-----|-----------||---r---||----------
|--------|-----------|-----|-----|-----|-----------||*--e--*||----------
|--------|--5--------|-----|--7--|-----|--7--------||*--s--*||----------
|--3--3--|-----0--3--|--5--|-----|--5--|-----0--3--||---t---||----------
Verse 8
Third guitar, bass out.

**Tabbed by Jerm and Todd
Awesome Sound - Ween Guitar tabs (www.vaxxine.com/mtbhl/ween.htm)