CANDI - words and music by Ween
from the album "Chocolate and Cheese"

There's not much to this song (that can be tabbed, at any rate).
Here's the meat of the song, there's a few little noodley bits
that i couldn't be fucked sorting out.

Candi - by Ween

Bass Riff (w/wah)
G---------------|---------------
D-------------7-|---------------
A-0000-3h4-6h7--|-0000-3h4-6h7--
E---------------|-------------5-

Guitar sting
E--19^-slow bend-(possibly using whammy bar)-
B--------------------------------------------

Riff at 3:38 (just before the break)
D-7p6p5-----------7-
A------7p6p5-7p6p5-- or something like that
E-------------------

Candi
Custard and berry
Candi
Peaches and creme
Candi
Glazing and cherry
Candi
Spicy and sticky
Candi
Chocolate with cheese
Candi
Custard and berry
Candi
Peaches and creme
Candi
Glazing and cherry
Candi
Custard and berry
Candi
Peaches and creme
Candi
Glazing and cherry
Candi
Chocolate with cheese
Candi, Candi
Candi, Candi

***Bass Tab*** by Geoffrey Dickens

w 4x e s s s s s e e e E w e s s s
||------||---r---||--r------------------------2--|--r--|--r-------------
||--4:--||*--e--*||--e-------------------1h2-----|--e--|--e-------------
||--4:--||*--s--*||--s--0--0--0--0--3h4----------|--s--|--s--0--0--0----
||------||---t---||--t---------------------------|--t--|--t-------------

s s e e e E w e s s s s s e e e e s w e
----------------|--r--|--r------------------------2--2--|--r--|--r------
--------1h2-----|--e--|--e-------------------1h2--------|--e--|--e------
0--3h4----------|--s--|--s--0--0--0--0--3h4-------------|--s--|--s------
-------------4--|--t--|--t------------------------------|--t--|--t------

s s s s s e e e e s w e s s s s s e e e E
----------------------------|--r--|--r------------------------2--|------
-----------------1h2--------|--e--|--e-------------------1h2-----|------
0--0--0--0--3h4-------------|--s--|--s--0--0--0--0--3h4----------|------
----------------------4--4--|--t--|--t---------------------------|------

w e s s s s s e e e E w e s s s s s e e e
r--|--r---------------------------|--r--|--r----------------------------
e--|--e-------------------1h2-----|--e--|--e-------------------1h2------
s--|--s--0--0--0--0--3h4----------|--s--|--s--0--0--0--0--3h4-----------
t--|--t------------------------4--|--t--|--t----------------------------

e s w e s s s s s e e e e s w e s s s
2--2--|--r--|--r------------------------------|--r--||---r--------------
------|--e--|--e-------------------1h2-----6--|--e--||*--e--------------
------|--s--|--s--0--0--0--0--3h4-------------|--s--||*--s--0--0--0-----
------|--t--|--t------------------------4-----|--t--||---t--------------

s s e e e s s s w e s s s s s e e e s s s w
-------------2p1h2--|--r--|--r-------------------------------|--r-------
--------1h2---------|--e--|--e-------------------1h2---------|--e-------
0--3h4--------------|--s--|--s--0--0--0--0--3h4--------------|--s-------
--------------------|--t--|--t------------------------4p3h4--|--t-------

2x e s s s s s e e e e s w e s s s s s e e
-||--r------------------------2--2--|--r--|--r--------------------------
*||--e-------------------1h2--------|--e--|--e-------------------1------
*||--s--0--0--0--0--3h4-------------|--s--|--s--0--0--0--0--3h4---------
-||--t------------------------------|--t--|--t--------------------------

e e s w e s s s s s e e e e s h e Q e
----------|--r--|--r------------------------2--2--|--r--2--r--|--r------
h2-----6--|--e--|--e-------------------1h2--------|--e-----e--|--e------
----------|--s--|--s--0--0--0--0--3h4-------------|--s-----s--|--s------
----4-----|--t--|--t------------------------------|--t-----t--|--t------

s s s s s e e e e s w e s s s s s e e e s s s
----------------------------|--r--|--r------------------------2p1h2-----
-----------------1h2--------|--e--|--e-------------------1h2------------
0--0--0--0--3h4-------------|--s--|--s--0--0--0--0--3h4-----------------
----------------------4--4--|--t--|--t----------------------------------

w e s s s s s e e e e s w e s s s s s
|--r--|--r------------------------------|--r--||---r--------------------
|--e--|--e-------------------1h2--------|--e--||*--e--------------------
|--s--|--s--0--0--0--0--3h4-------------|--s--||*--s--0--0--0--0--3-----
|--t--|--t------------------------4--4--|--t--||---t--------------------

e e e e s w e s s s s s e e e e s w 3x
---------2--2--|--r--|--r------------------------------|--r---||--|-----
----1h2--------|--e--|--e-------------------1h2--------|--e--*||--|-----
h4-------------|--s--|--s--0--0--0--0--3h4-------------|--s--*||--|-----
---------------|--t--|--t------------------------4--4--|--t---||--|-----

e s s s s s e e e s s s w e s s s s s e e e s
r------------------------2p1h2--|--r--|--r------------------------------
e-------------------1h2---------|--e--|--e-------------------1h2--------
s--0--0--0--0--3h4--------------|--s--|--s--0--0--0--0--3h4-------------
t-------------------------------|--t--|--t------------------------4-----

s s w e s s s s s e e e e s w e s s s s
------|--r--|--r------------------------2--2--|--r--|--r----------------
------|--e--|--e-------------------1h2--------|--e--|--e----------------
------|--s--|--s--0--0--0--0--3h4-------------|--s--|--s--0--0--0--0----
p3h4--|--t--|--t------------------------------|--t--|--t----------------

s e e e e s w e s s s s s e e e e s w e
----------------|--r--|--r------------------------2--2--|--r--|--r------
-----1h2--------|--e--|--e-------------------1h2--------|--e--|--e------
3h4-------------|--s--|--s--0--0--0--0--3h4-------------|--s--|--s------
----------4--4--|--t--|--t------------------------------|--t--|--t------

s s s s s e e e s s s w 9x
-----------------------------||---r---||--------------------------------
-----------------1h2---------||*--e--*||--------------------------------
0--0--0--0--3h4--------------||*--s--*||--------------------------------
----------------------4p3h4--||---t---||--------------------------------

**Tabbed by blamft (blamft@hotmail.com)
Awesome Sound - Ween Guitar tabs (www.vaxxine.com/mtbhl/ween.htm)